  0
SECTION
  2
HEADER
  9
$ACADVER
  1
AC1018
  9
$ACADMAINTVER
 70
     0
  9
$DWGCODEPAGE
  3
ANSI_932
  9
$INSBASE
 10
-15.25
 20
-15.5
 30
0.0
  9
$EXTMIN
 10
-15.25
 20
-15.5
 30
0.0
  9
$EXTMAX
 10
163.75
 20
124.5
 30
0.0
  9
$LIMMIN
 10
-15.25
 20
-15.5
  9
$LIMMAX
 10
163.75
 20
124.5
  9
$ORTHOMODE
 70
     0
  9
$REGENMODE
 70
     1
  9
$FILLMODE
 70
     1
  9
$QTEXTMODE
 70
     0
  9
$MIRRTEXT
 70
     1
  9
$LTSCALE
 40
1.0
  9
$ATTMODE
 70
     1
  9
$TEXTSIZE
 40
2.5
  9
$TRACEWID
 40
1.0
  9
$TEXTSTYLE
  7
FX_VECTOR
  9
$CLAYER
  8
0
  9
$CELTYPE
  6
ByLayer
  9
$CECOLOR
 62
   256
  9
$CELTSCALE
 40
1.0
  9
$DISPSILH
 70
     0
  9
$DIMSCALE
 40
1.0
  9
$DIMASZ
 40
2.0
  9
$DIMEXO
 40
1.0
  9
$DIMDLI
 40
10.0
  9
$DIMRND
 40
0.0
  9
$DIMDLE
 40
6.0
  9
$DIMEXE
 40
1.0
  9
$DIMTP
 40
0.0
  9
$DIMTM
 40
0.0
  9
$DIMTXT
 40
4.0
  9
$DIMCEN
 40
2.5
  9
$DIMTSZ
 40
0.0
  9
$DIMTOL
 70
     0
  9
$DIMLIM
 70
     0
  9
$DIMTIH
 70
     0
  9
$DIMTOH
 70
     0
  9
$DIMSE1
 70
     0
  9
$DIMSE2
 70
     0
  9
$DIMTAD
 70
     1
  9
$DIMZIN
 70
     8
  9
$DIMBLK
  1

  9
$DIMASO
 70
     1
  9
$DIMSHO
 70
     1
  9
$DIMPOST
  1

  9
$DIMAPOST
  1

  9
$DIMALT
 70
     0
  9
$DIMALTD
 70
     3
  9
$DIMALTF
 40
0.03937
  9
$DIMLFAC
 40
1.0
  9
$DIMTOFL
 70
     1
  9
$DIMTVP
 40
0.0
  9
$DIMTIX
 70
     0
  9
$DIMSOXD
 70
     0
  9
$DIMSAH
 70
     1
  9
$DIMBLK1
  1
FXTIP_ARROW_S
  9
$DIMBLK2
  1
FXTIP_ARROW_E
  9
$DIMSTYLE
  2
FX_DIMINFO
  9
$DIMCLRD
 70
     0
  9
$DIMCLRE
 70
     0
  9
$DIMCLRT
 70
     0
  9
$DIMTFAC
 40
1.0
  9
$DIMGAP
 40
1.0
  9
$DIMJUST
 70
     0
  9
$DIMSD1
 70
     0
  9
$DIMSD2
 70
     0
  9
$DIMTOLJ
 70
     1
  9
$DIMTZIN
 70
     8
  9
$DIMALTZ
 70
     0
  9
$DIMALTTZ
 70
     0
  9
$DIMUPT
 70
     0
  9
$DIMDEC
 70
     2
  9
$DIMTDEC
 70
     2
  9
$DIMALTU
 70
     2
  9
$DIMALTTD
 70
     3
  9
$DIMTXSTY
  7
FX_VECTOR
  9
$DIMAUNIT
 70
     0
  9
$DIMADEC
 70
     2
  9
$DIMALTRND
 40
0.0
  9
$DIMAZIN
 70
     2
  9
$DIMDSEP
 70
    46
  9
$DIMATFIT
 70
     3
  9
$DIMFRAC
 70
     0
  9
$DIMLDRBLK
  1
FXTIP_ARROW_S
  9
$DIMLUNIT
 70
     2
  9
$DIMLWD
 70
    -2
  9
$DIMLWE
 70
    -2
  9
$DIMTMOVE
 70
     0
  9
$LUNITS
 70
     2
  9
$LUPREC
 70
     4
  9
$SKETCHINC
 40
1.0
  9
$FILLETRAD
 40
10.0
  9
$AUNITS
 70
     0
  9
$AUPREC
 70
     0
  9
$MENU
  1
.
  9
$ELEVATION
 40
0.0
  9
$PELEVATION
 40
0.0
  9
$THICKNESS
 40
0.0
  9
$LIMCHECK
 70
     0
  9
$CHAMFERA
 40
0.0
  9
$CHAMFERB
 40
0.0
  9
$CHAMFERC
 40
0.0
  9
$CHAMFERD
 40
0.0
  9
$SKPOLY
 70
     0
  9
$TDCREATE
 40
2458411.752782639
  9
$TDUCREATE
 40
2458411.377782639
  9
$TDUPDATE
 40
2458411.752783727
  9
$TDUUPDATE
 40
2458411.377783727
  9
$TDINDWG
 40
0.0000000116
  9
$TDUSRTIMER
 40
0.0000000116
  9
$USRTIMER
 70
     1
  9
$ANGBASE
 50
0.0
  9
$ANGDIR
 70
     0
  9
$PDMODE
 70
     0
  9
$PDSIZE
 40
0.0
  9
$PLINEWID
 40
0.0
  9
$SPLFRAME
 70
     0
  9
$SPLINETYPE
 70
     6
  9
$SPLINESEGS
 70
     8
  9
$HANDSEED
  5
2F2
  9
$SURFTAB1
 70
     6
  9
$SURFTAB2
 70
     6
  9
$SURFTYPE
 70
     6
  9
$SURFU
 70
     6
  9
$SURFV
 70
     6
  9
$UCSBASE
  2

  9
$UCSNAME
  2

  9
$UCSORG
 10
0.0
 20
0.0
 30
0.0
  9
$UCSXDIR
 10
1.0
 20
0.0
 30
0.0
  9
$UCSYDIR
 10
0.0
 20
1.0
 30
0.0
  9
$UCSORTHOREF
  2

  9
$UCSORTHOVIEW
 70
     0
  9
$UCSORGTOP
 10
0.0
 20
0.0
 30
0.0
  9
$UCSORGBOTTOM
 10
0.0
 20
0.0
 30
0.0
  9
$UCSORGLEFT
 10
0.0
 20
0.0
 30
0.0
  9
$UCSORGRIGHT
 10
0.0
 20
0.0
 30
0.0
  9
$UCSORGFRONT
 10
0.0
 20
0.0
 30
0.0
  9
$UCSORGBACK
 10
0.0
 20
0.0
 30
0.0
  9
$PUCSBASE
  2

  9
$PUCSNAME
  2

  9
$PUCSORG
 10
0.0
 20
0.0
 30
0.0
  9
$PUCSXDIR
 10
1.0
 20
0.0
 30
0.0
  9
$PUCSYDIR
 10
0.0
 20
1.0
 30
0.0
  9
$PUCSORTHOREF
  2

  9
$PUCSORTHOVIEW
 70
     0
  9
$PUCSORGTOP
 10
0.0
 20
0.0
 30
0.0
  9
$PUCSORGBOTTOM
 10
0.0
 20
0.0
 30
0.0
  9
$PUCSORGLEFT
 10
0.0
 20
0.0
 30
0.0
  9
$PUCSORGRIGHT
 10
0.0
 20
0.0
 30
0.0
  9
$PUCSORGFRONT
 10
0.0
 20
0.0
 30
0.0
  9
$PUCSORGBACK
 10
0.0
 20
0.0
 30
0.0
  9
$USERI1
 70
     0
  9
$USERI2
 70
     0
  9
$USERI3
 70
     0
  9
$USERI4
 70
     0
  9
$USERI5
 70
     0
  9
$USERR1
 40
0.0
  9
$USERR2
 40
0.0
  9
$USERR3
 40
0.0
  9
$USERR4
 40
0.0
  9
$USERR5
 40
0.0
  9
$WORLDVIEW
 70
     1
  9
$SHADEDGE
 70
     3
  9
$SHADEDIF
 70
    70
  9
$TILEMODE
 70
     1
  9
$MAXACTVP
 70
    64
  9
$PINSBASE
 10
0.0
 20
0.0
 30
0.0
  9
$PLIMCHECK
 70
     0
  9
$PEXTMIN
 10
1.000000000000000E+20
 20
1.000000000000000E+20
 30
1.000000000000000E+20
  9
$PEXTMAX
 10
-1.000000000000000E+20
 20
-1.000000000000000E+20
 30
-1.000000000000000E+20
  9
$PLIMMIN
 10
0.0
 20
0.0
  9
$PLIMMAX
 10
420.0
 20
297.0
  9
$UNITMODE
 70
     0
  9
$VISRETAIN
 70
     1
  9
$PLINEGEN
 70
     0
  9
$PSLTSCALE
 70
     1
  9
$TREEDEPTH
 70
  3020
  9
$CMLSTYLE
  2
Standard
  9
$CMLJUST
 70
     0
  9
$CMLSCALE
 40
20.0
  9
$PROXYGRAPHICS
 70
     1
  9
$MEASUREMENT
 70
     1
  9
$CELWEIGHT
370
    -1
  9
$ENDCAPS
280
     0
  9
$JOINSTYLE
280
     0
  9
$LWDISPLAY
290
     0
  9
$INSUNITS
 70
     4
  9
$HYPERLINKBASE
  1

  9
$STYLESHEET
  1

  9
$XEDIT
290
     1
  9
$CEPSNTYPE
380
     0
  9
$PSTYLEMODE
290
     1
  9
$FINGERPRINTGUID
  2
{171FA3DB-B85C-4CAD-94A8-C45A519492D0}
  9
$VERSIONGUID
  2
{FAEB1C32-E019-11D5-929B-00C0DF256EC4}
  9
$EXTNAMES
290
     1
  9
$PSVPSCALE
 40
0.0
  9
$OLESTARTUP
290
     0
  9
$SORTENTS
280
   127
  9
$INDEXCTL
280
     0
  9
$HIDETEXT
280
     1
  9
$XCLIPFRAME
290
     0
  9
$HALOGAP
280
     0
  9
$OBSCOLOR
 70
   257
  9
$OBSLTYPE
280
     0
  9
$INTERSECTIONDISPLAY
280
     0
  9
$INTERSECTIONCOLOR
 70
   257
  9
$DIMASSOC
280
     2
  9
$PROJECTNAME
  1

  0
ENDSEC
  0
SECTION
  2
CLASSES
  0
CLASS
  1
ACDBDICTIONARYWDFLT
  2
AcDbDictionaryWithDefault
  3
ObjectDBX Classes
 90
        0
 91
        4
280
     0
281
     0
  0
CLASS
  1
VISUALSTYLE
  2
AcDbVisualStyle
  3
ObjectDBX Classes
 90
     4095
 91
        4
280
     0
281
     0
  0
CLASS
  1
MATERIAL
  2
AcDbMaterial
  3
ObjectDBX Classes
 90
     1153
 91
        4
280
     0
281
     0
  0
CLASS
  1
SCALE
  2
AcDbScale
  3
ObjectDBX Classes
 90
     1153
 91
        4
280
     0
281
     0
  0
CLASS
  1
TABLESTYLE
  2
AcDbTableStyle
  3
ObjectDBX Classes
 90
     4095
 91
        4
280
     0
281
     0
  0
CLASS
  1
MLEADERSTYLE
  2
AcDbMLeaderStyle
  3
ACDB_MLEADERSTYLE_CLASS
 90
     4095
 91
        4
280
     0
281
     0
  0
CLASS
  1
SUN
  2
AcDbSun
  3
SCENEOE
 90
     1153
 91
        4
280
     0
281
     0
  0
CLASS
  1
DICTIONARYVAR
  2
AcDbDictionaryVar
  3
ObjectDBX Classes
 90
        0
 91
        4
280
     0
281
     0
  0
CLASS
  1
CELLSTYLEMAP
  2
AcDbCellStyleMap
  3
ObjectDBX Classes
 90
     1152
 91
        4
280
     0
281
     0
  0
ENDSEC
  0
SECTION
  2
TABLES
  0
TABLE
  2
VPORT
  5
8
102
{ACAD_XDICTIONARY
360
2AB
102
}
330
0
100
AcDbSymbolTable
 70
     1
  0
VPORT
  5
29
330
8
100
AcDbSymbolTableRecord
100
AcDbViewportTableRecord
  2
*Active
 70
     0
 10
0.0
 20
0.0
 11
1.0
 21
1.0
 12
74.25
 22
54.5
 13
0.0
 23
0.0
 14
10.0
 24
10.0
 15
10.0
 25
10.0
 16
0.0
 26
0.0
 36
1.0
 17
0.0
 27
0.0
 37
0.0
 40
140.0
 41
1.278571428571428
 42
50.0
 43
0.0
 44
0.0
 50
0.0
 51
0.0
 71
     0
 72
   100
 73
     1
 74
     3
 75
     0
 76
     0
 77
     0
 78
     0
281
     0
 65
     1
110
0.0
120
0.0
130
0.0
111
1.0
121
0.0
131
0.0
112
0.0
122
1.0
132
0.0
 79
     0
146
0.0
  0
ENDTAB
  0
TABLE
  2
LTYPE
  5
5
330
0
100
AcDbSymbolTable
 70
     4
  0
LTYPE
  5
14
330
5
100
AcDbSymbolTableRecord
100
AcDbLinetypeTableRecord
  2
ByBlock
 70
     0
  3

 72
    65
 73
     0
 40
0.0
  0
LTYPE
  5
15
330
5
100
AcDbSymbolTableRecord
100
AcDbLinetypeTableRecord
  2
ByLayer
 70
     0
  3

 72
    65
 73
     0
 40
0.0
  0
LTYPE
  5
16
330
5
100
AcDbSymbolTableRecord
100
AcDbLinetypeTableRecord
  2
Continuous
 70
     0
  3
Solid line
 72
    65
 73
     0
 40
0.0
  0
LTYPE
  5
DF
330
5
100
AcDbSymbolTableRecord
100
AcDbLinetypeTableRecord
  2
CENTER
 70
     0
  3

 72
    65
 73
     4
 40
1.8
 49
1.2
 74
     0
 49
-0.2
 74
     0
 49
0.2
 74
     0
 49
-0.2
 74
     0
  0
LTYPE
  5
259
330
5
100
AcDbSymbolTableRecord
100
AcDbLinetypeTableRecord
  2
DASHED
 70
     0
  3

 72
    65
 73
     2
 40
0.7
 49
0.5
 74
     0
 49
-0.2
 74
     0
  0
LTYPE
  5
2A9
330
5
100
AcDbSymbolTableRecord
100
AcDbLinetypeTableRecord
  2
DOT
 70
     0
  3

 72
    65
 73
     2
 40
0.3
 49
0.1
 74
     0
 49
-0.2
 74
     0
  0
ENDTAB
  0
TABLE
  2
LAYER
  5
2
330
0
100
AcDbSymbolTable
 70
     2
  0
LAYER
  5
10
330
2
100
AcDbSymbolTableRecord
100
AcDbLayerTableRecord
  2
0
 70
     0
 62
     7
  6
Continuous
370
    -3
390
F
  0
LAYER
  5
DA
330
2
100
AcDbSymbolTableRecord
100
AcDbLayerTableRecord
  2
CSLAYER1
 70
     0
 62
     1
  6
Continuous
370
    13
390
F
  0
ENDTAB
  0
TABLE
  2
STYLE
  5
3
330
0
100
AcDbSymbolTable
 70
     3
  0
STYLE
  5
11
330
3
100
AcDbSymbolTableRecord
100
AcDbTextStyleTableRecord
  2
Standard
 70
     0
 40
0.0
 41
1.0
 50
0.0
 71
     0
 42
2.5
  3
txt
  4

  0
STYLE
  5
6E
330
3
100
AcDbSymbolTableRecord
100
AcDbTextStyleTableRecord
  2
FX_VECTOR
 70
     0
 40
0.0
 41
1.0
 50
0.0
 71
     0
 42
2.5
  3
MONOTXT.SHX
  4
BigFont.shx
  0
STYLE
  5
D9
330
3
100
AcDbSymbolTableRecord
100
AcDbTextStyleTableRecord
  2
DEFAULT
 70
     0
 40
0.0
 41
1.0
 50
0.0
 71
     0
 42
2.5
  3

  4

1001
ACAD
1000
ＭＳ ゴシック
1071
    32817
  0
ENDTAB
  0
TABLE
  2
VIEW
  5
6
330
0
100
AcDbSymbolTable
 70
     0
  0
ENDTAB
  0
TABLE
  2
UCS
  5
7
330
0
100
AcDbSymbolTable
 70
     0
  0
ENDTAB
  0
TABLE
  2
APPID
  5
9
330
0
100
AcDbSymbolTable
 70
     2
  0
APPID
  5
12
330
9
100
AcDbSymbolTableRecord
100
AcDbRegAppTableRecord
  2
ACAD
 70
     0
  0
APPID
  5
2EA
330
9
100
AcDbSymbolTableRecord
100
AcDbRegAppTableRecord
  2
ACAD_MLEADERVER
 70
     0
  0
ENDTAB
  0
TABLE
  2
DIMSTYLE
  5
A
330
0
100
AcDbSymbolTable
 70
     2
100
AcDbDimStyleTable
  0
DIMSTYLE
105
27
330
A
100
AcDbSymbolTableRecord
100
AcDbDimStyleTableRecord
  2
ISO-25
 70
     0
 41
2.5
 42
0.625
 43
3.75
 44
1.25
 73
     0
 74
     0
 77
     1
 78
     8
140
2.5
141
2.5
143
0.03937007874016
147
0.625
171
     3
172
     1
178
     0
271
     2
272
     2
274
     3
278
    44
283
     0
284
     8
340
11
  0
DIMSTYLE
105
D8
330
A
100
AcDbSymbolTableRecord
100
AcDbDimStyleTableRecord
  2
FX_DIMINFO
 70
     0
 41
2.0
 42
1.0
 43
10.0
 44
1.0
 46
6.0
 73
     0
 74
     0
 77
     1
 78
     8
 79
     2
140
4.0
141
2.5
143
0.03937
147
1.0
171
     3
172
     1
173
     1
178
     0
179
     2
271
     2
272
     2
274
     3
284
     8
340
6E
341
72
343
72
344
78
  0
ENDTAB
  0
TABLE
  2
BLOCK_RECORD
  5
1
330
0
100
AcDbSymbolTable
 70
    28
  0
BLOCK_RECORD
  5
1F
330
1
100
AcDbSymbolTableRecord
100
AcDbBlockTableRecord
  2
*Model_Space
340
22
  0
BLOCK_RECORD
  5
1B
330
1
100
AcDbSymbolTableRecord
100
AcDbBlockTableRecord
  2
*Paper_Space
340
1E
  0
BLOCK_RECORD
  5
23
330
1
100
AcDbSymbolTableRecord
100
AcDbBlockTableRecord
  2
*Paper_Space0
340
26
  0
BLOCK_RECORD
  5
6F
330
1
100
AcDbSymbolTableRecord
100
AcDbBlockTableRecord
  2
FXTIP_NONE
340
0
  0
BLOCK_RECORD
  5
72
330
1
100
AcDbSymbolTableRecord
100
AcDbBlockTableRecord
  2
FXTIP_ARROW_S
340
0
  0
BLOCK_RECORD
  5
78
330
1
100
AcDbSymbolTableRecord
100
AcDbBlockTableRecord
  2
FXTIP_ARROW_E
340
0
  0
BLOCK_RECORD
  5
7E
330
1
100
AcDbSymbolTableRecord
100
AcDbBlockTableRecord
  2
FXTIP_BLACKDOT_S
340
0
  0
BLOCK_RECORD
  5
84
330
1
100
AcDbSymbolTableRecord
100
AcDbBlockTableRecord
  2
FXTIP_BLACKDOT_E
340
0
  0
BLOCK_RECORD
  5
8A
330
1
100
AcDbSymbolTableRecord
100
AcDbBlockTableRecord
  2
FXTIP_TRIANGLE_S
340
0
  0
BLOCK_RECORD
  5
91
330
1
100
AcDbSymbolTableRecord
100
AcDbBlockTableRecord
  2
FXTIP_TRIANGLE_E
340
0
  0
BLOCK_RECORD
  5
98
330
1
100
AcDbSymbolTableRecord
100
AcDbBlockTableRecord
  2
FXTIP_ARCHITECT_S
340
0
  0
BLOCK_RECORD
  5
9E
330
1
100
AcDbSymbolTableRecord
100
AcDbBlockTableRecord
  2
FXTIP_ARCHITECT_E
340
0
  0
BLOCK_RECORD
  5
A4
330
1
100
AcDbSymbolTableRecord
100
AcDbBlockTableRecord
  2
FXTIP_CIVIL_S
340
0
  0
BLOCK_RECORD
  5
AA
330
1
100
AcDbSymbolTableRecord
100
AcDbBlockTableRecord
  2
FXTIP_CIVIL_E
340
0
  0
BLOCK_RECORD
  5
B0
330
1
100
AcDbSymbolTableRecord
100
AcDbBlockTableRecord
  2
FXTIP_WHITEDOT_S
340
0
  0
BLOCK_RECORD
  5
B5
330
1
100
AcDbSymbolTableRecord
100
AcDbBlockTableRecord
  2
FXTIP_WHITEDOT_E
340
0
  0
BLOCK_RECORD
  5
BA
330
1
100
AcDbSymbolTableRecord
100
AcDbBlockTableRecord
  2
FXTIP_UPARROW_S
340
0
  0
BLOCK_RECORD
  5
BF
330
1
100
AcDbSymbolTableRecord
100
AcDbBlockTableRecord
  2
FXTIP_UPARROW_E
340
0
  0
BLOCK_RECORD
  5
C4
330
1
100
AcDbSymbolTableRecord
100
AcDbBlockTableRecord
  2
FXTIP_DOWNARROW_S
340
0
  0
BLOCK_RECORD
  5
C9
330
1
100
AcDbSymbolTableRecord
100
AcDbBlockTableRecord
  2
FXTIP_DOWNARROW_E
340
0
  0
BLOCK_RECORD
  5
CE
330
1
100
AcDbSymbolTableRecord
100
AcDbBlockTableRecord
  2
FXTIP_BLACKTRIANGLE_S
340
0
  0
BLOCK_RECORD
  5
D3
330
1
100
AcDbSymbolTableRecord
100
AcDbBlockTableRecord
  2
FXTIP_BLACKTRIANGLE_E
340
0
  0
BLOCK_RECORD
  5
213
330
1
100
AcDbSymbolTableRecord
100
AcDbBlockTableRecord
  2
BLKF023
340
0
102
{BLKREFS
331
216
102
}
  0
BLOCK_RECORD
  5
220
330
1
100
AcDbSymbolTableRecord
100
AcDbBlockTableRecord
  2
BLKF024
340
0
102
{BLKREFS
331
223
102
}
  0
BLOCK_RECORD
  5
22C
330
1
100
AcDbSymbolTableRecord
100
AcDbBlockTableRecord
  2
BLKF025
340
0
102
{BLKREFS
331
22F
102
}
  0
BLOCK_RECORD
  5
246
330
1
100
AcDbSymbolTableRecord
100
AcDbBlockTableRecord
  2
BLKF026
340
0
102
{BLKREFS
331
249
102
}
  0
BLOCK_RECORD
  5
261
330
1
100
AcDbSymbolTableRecord
100
AcDbBlockTableRecord
  2
BLKF027
340
0
102
{BLKREFS
331
264
102
}
  0
BLOCK_RECORD
  5
26E
330
1
100
AcDbSymbolTableRecord
100
AcDbBlockTableRecord
  2
BLKF028
340
0
102
{BLKREFS
331
271
102
}
  0
BLOCK_RECORD
  5
27B
330
1
100
AcDbSymbolTableRecord
100
AcDbBlockTableRecord
  2
BLKF029
340
0
102
{BLKREFS
331
27E
102
}
  0
BLOCK_RECORD
  5
28D
330
1
100
AcDbSymbolTableRecord
100
AcDbBlockTableRecord
  2
BLKF030
340
0
102
{BLKREFS
331
290
102
}
  0
ENDTAB
  0
ENDSEC
  0
SECTION
  2
BLOCKS
  0
BLOCK
  5
20
330
1F
100
AcDbEntity
  8
0
100
AcDbBlockBegin
  2
*Model_Space
 70
     0
 10
0.0
 20
0.0
 30
0.0
  3
*Model_Space
  1
*Model_Space
  0
ENDBLK
  5
21
330
1F
100
AcDbEntity
  8
0
100
AcDbBlockEnd
  0
BLOCK
  5
1C
330
1B
100
AcDbEntity
 67
     1
  8
0
100
AcDbBlockBegin
  2
*Paper_Space
 70
     0
 10
0.0
 20
0.0
 30
0.0
  3
*Paper_Space
  1
*Paper_Space
  0
ENDBLK
  5
1D
330
1B
100
AcDbEntity
 67
     1
  8
0
100
AcDbBlockEnd
  0
BLOCK
  5
24
330
23
100
AcDbEntity
  8
0
100
AcDbBlockBegin
  2
*Paper_Space0
 70
     0
 10
0.0
 20
0.0
 30
0.0
  3
*Paper_Space0
  1
*Paper_Space0
  0
ENDBLK
  5
25
330
23
100
AcDbEntity
  8
0
100
AcDbBlockEnd
  0
BLOCK
  5
70
330
6F
100
AcDbEntity
  8
0
100
AcDbBlockBegin
  2
FXTIP_NONE
 70
     0
 10
0.0
 20
0.0
 30
0.0
  3
FXTIP_NONE
  1
FXTIP_NONE
  0
ENDBLK
  5
71
330
6F
100
AcDbEntity
  8
0
100
AcDbBlockEnd
  0
BLOCK
  5
73
330
72
100
AcDbEntity
  8
0
100
AcDbBlockBegin
  2
FXTIP_ARROW_S
 70
     0
 10
0.0
 20
0.0
 30
0.0
  3
FXTIP_ARROW_S
  1
FXTIP_ARROW_S
  0
LINE
  5
75
330
72
100
AcDbEntity
  8
0
  6
Continuous
 62
     0
370
    -2
100
AcDbLine
 10
0.0
 20
0.0
 30
0.0
 11
-1.0
 21
0.0000000000000001
 31
0.0
  0
LINE
  5
76
330
72
100
AcDbEntity
  8
0
  6
Continuous
 62
     0
370
    -2
100
AcDbLine
 10
0.0
 20
0.0
 30
0.0
 11
-0.9659258262890683
 21
-0.2588190451025206
 31
0.0
  0
LINE
  5
77
330
72
100
AcDbEntity
  8
0
  6
Continuous
 62
     0
370
    -2
100
AcDbLine
 10
0.0
 20
0.0
 30
0.0
 11
-0.9659258262890683
 21
0.2588190451025209
 31
0.0
  0
ENDBLK
  5
74
330
72
100
AcDbEntity
  8
0
100
AcDbBlockEnd
  0
BLOCK
  5
79
330
78
100
AcDbEntity
  8
0
100
AcDbBlockBegin
  2
FXTIP_ARROW_E
 70
     0
 10
0.0
 20
0.0
 30
0.0
  3
FXTIP_ARROW_E
  1
FXTIP_ARROW_E
  0
LINE
  5
7B
330
78
100
AcDbEntity
  8
0
  6
Continuous
 62
     0
370
    -2
100
AcDbLine
 10
0.0
 20
0.0
 30
0.0
 11
-1.0
 21
0.0
 31
0.0
  0
LINE
  5
7C
330
78
100
AcDbEntity
  8
0
  6
Continuous
 62
     0
370
    -2
100
AcDbLine
 10
0.0
 20
0.0
 30
0.0
 11
-0.9659258262890683
 21
0.2588190451025207
 31
0.0
  0
LINE
  5
7D
330
78
100
AcDbEntity
  8
0
  6
Continuous
 62
     0
370
    -2
100
AcDbLine
 10
0.0
 20
0.0
 30
0.0
 11
-0.9659258262890683
 21
-0.2588190451025207
 31
0.0
  0
ENDBLK
  5
7A
330
78
100
AcDbEntity
  8
0
100
AcDbBlockEnd
  0
BLOCK
  5
7F
330
7E
100
AcDbEntity
  8
0
100
AcDbBlockBegin
  2
FXTIP_BLACKDOT_S
 70
     0
 10
0.0
 20
0.0
 30
0.0
  3
FXTIP_BLACKDOT_S
  1
FXTIP_BLACKDOT_S
  0
LINE
  5
81
330
7E
100
AcDbEntity
  8
0
  6
Continuous
 62
     0
370
    -2
100
AcDbLine
 10
0.0
 20
0.0
 30
0.0
 11
-1.0
 21
0.0000000000000001
 31
0.0
  0
LWPOLYLINE
  5
82
330
7E
100
AcDbEntity
  8
0
  6
Continuous
 62
     0
370
    -2
100
AcDbPolyline
 90
        2
 70
     1
 43
0.25
 10
-0.125
 20
0.0
 42
1.0
 10
0.125
 20
0.0
 42
1.0
  0
CIRCLE
  5
83
330
7E
100
AcDbEntity
  8
0
  6
Continuous
 62
     0
370
    -2
100
AcDbCircle
 10
0.0
 20
0.0
 30
0.0
 40
0.25
  0
ENDBLK
  5
80
330
7E
100
AcDbEntity
  8
0
100
AcDbBlockEnd
  0
BLOCK
  5
85
330
84
100
AcDbEntity
  8
0
100
AcDbBlockBegin
  2
FXTIP_BLACKDOT_E
 70
     0
 10
0.0
 20
0.0
 30
0.0
  3
FXTIP_BLACKDOT_E
  1
FXTIP_BLACKDOT_E
  0
LINE
  5
87
330
84
100
AcDbEntity
  8
0
  6
Continuous
 62
     0
370
    -2
100
AcDbLine
 10
0.0
 20
0.0
 30
0.0
 11
-1.0
 21
0.0
 31
0.0
  0
LWPOLYLINE
  5
88
330
84
100
AcDbEntity
  8
0
  6
Continuous
 62
     0
370
    -2
100
AcDbPolyline
 90
        2
 70
     1
 43
0.25
 10
-0.125
 20
0.0
 42
1.0
 10
0.125
 20
0.0
 42
1.0
  0
CIRCLE
  5
89
330
84
100
AcDbEntity
  8
0
  6
Continuous
 62
     0
370
    -2
100
AcDbCircle
 10
0.0
 20
0.0
 30
0.0
 40
0.25
  0
ENDBLK
  5
86
330
84
100
AcDbEntity
  8
0
100
AcDbBlockEnd
  0
BLOCK
  5
8B
330
8A
100
AcDbEntity
  8
0
100
AcDbBlockBegin
  2
FXTIP_TRIANGLE_S
 70
     0
 10
0.0
 20
0.0
 30
0.0
  3
FXTIP_TRIANGLE_S
  1
FXTIP_TRIANGLE_S
  0
LINE
  5
8D
330
8A
100
AcDbEntity
  8
0
  6
Continuous
 62
     0
370
    -2
100
AcDbLine
 10
0.0
 20
0.0
 30
0.0
 11
-1.0
 21
0.0000000000000001
 31
0.0
  0
LINE
  5
8E
330
8A
100
AcDbEntity
  8
0
  6
Continuous
 62
     0
370
    -2
100
AcDbLine
 10
0.0
 20
0.0
 30
0.0
 11
-0.9659258262890683
 21
-0.2588190451025206
 31
0.0
  0
LINE
  5
8F
330
8A
100
AcDbEntity
  8
0
  6
Continuous
 62
     0
370
    -2
100
AcDbLine
 10
0.0
 20
0.0
 30
0.0
 11
-0.9659258262890683
 21
0.2588190451025209
 31
0.0
  0
LINE
  5
90
330
8A
100
AcDbEntity
  8
0
  6
Continuous
 62
     0
370
    -2
100
AcDbLine
 10
-0.9659258262890683
 20
-0.2588190451025206
 30
0.0
 11
-0.9659258262890683
 21
0.2588190451025209
 31
0.0
  0
ENDBLK
  5
8C
330
8A
100
AcDbEntity
  8
0
100
AcDbBlockEnd
  0
BLOCK
  5
92
330
91
100
AcDbEntity
  8
0
100
AcDbBlockBegin
  2
FXTIP_TRIANGLE_E
 70
     0
 10
0.0
 20
0.0
 30
0.0
  3
FXTIP_TRIANGLE_E
  1
FXTIP_TRIANGLE_E
  0
LINE
  5
94
330
91
100
AcDbEntity
  8
0
  6
Continuous
 62
     0
370
    -2
100
AcDbLine
 10
0.0
 20
0.0
 30
0.0
 11
-1.0
 21
0.0
 31
0.0
  0
LINE
  5
95
330
91
100
AcDbEntity
  8
0
  6
Continuous
 62
     0
370
    -2
100
AcDbLine
 10
0.0
 20
0.0
 30
0.0
 11
-0.9659258262890683
 21
0.2588190451025207
 31
0.0
  0
LINE
  5
96
330
91
100
AcDbEntity
  8
0
  6
Continuous
 62
     0
370
    -2
100
AcDbLine
 10
0.0
 20
0.0
 30
0.0
 11
-0.9659258262890683
 21
-0.2588190451025207
 31
0.0
  0
LINE
  5
97
330
91
100
AcDbEntity
  8
0
  6
Continuous
 62
     0
370
    -2
100
AcDbLine
 10
-0.9659258262890683
 20
0.2588190451025207
 30
0.0
 11
-0.9659258262890683
 21
-0.2588190451025207
 31
0.0
  0
ENDBLK
  5
93
330
91
100
AcDbEntity
  8
0
100
AcDbBlockEnd
  0
BLOCK
  5
99
330
98
100
AcDbEntity
  8
0
100
AcDbBlockBegin
  2
FXTIP_ARCHITECT_S
 70
     0
 10
0.0
 20
0.0
 30
0.0
  3
FXTIP_ARCHITECT_S
  1
FXTIP_ARCHITECT_S
  0
LINE
  5
9B
330
98
100
AcDbEntity
  8
0
  6
Continuous
 62
     0
370
    -2
100
AcDbLine
 10
0.0
 20
0.0
 30
0.0
 11
-1.0
 21
0.0000000000000001
 31
0.0
  0
LINE
  5
9C
330
98
100
AcDbEntity
  8
0
  6
Continuous
 62
     0
370
    -2
100
AcDbLine
 10
0.0
 20
0.0
 30
0.0
 11
-0.7071067811865476
 21
-0.7071067811865474
 31
0.0
  0
LINE
  5
9D
330
98
100
AcDbEntity
  8
0
  6
Continuous
 62
     0
370
    -2
100
AcDbLine
 10
0.0
 20
0.0
 30
0.0
 11
0.7071067811865476
 21
0.7071067811865474
 31
0.0
  0
ENDBLK
  5
9A
330
98
100
AcDbEntity
  8
0
100
AcDbBlockEnd
  0
BLOCK
  5
9F
330
9E
100
AcDbEntity
  8
0
100
AcDbBlockBegin
  2
FXTIP_ARCHITECT_E
 70
     0
 10
0.0
 20
0.0
 30
0.0
  3
FXTIP_ARCHITECT_E
  1
FXTIP_ARCHITECT_E
  0
LINE
  5
A1
330
9E
100
AcDbEntity
  8
0
  6
Continuous
 62
     0
370
    -2
100
AcDbLine
 10
0.0
 20
0.0
 30
0.0
 11
-1.0
 21
0.0
 31
0.0
  0
LINE
  5
A2
330
9E
100
AcDbEntity
  8
0
  6
Continuous
 62
     0
370
    -2
100
AcDbLine
 10
0.0
 20
0.0
 30
0.0
 11
0.7071067811865475
 21
0.7071067811865475
 31
0.0
  0
LINE
  5
A3
330
9E
100
AcDbEntity
  8
0
  6
Continuous
 62
     0
370
    -2
100
AcDbLine
 10
0.0
 20
0.0
 30
0.0
 11
-0.7071067811865475
 21
-0.7071067811865475
 31
0.0
  0
ENDBLK
  5
A0
330
9E
100
AcDbEntity
  8
0
100
AcDbBlockEnd
  0
BLOCK
  5
A5
330
A4
100
AcDbEntity
  8
0
100
AcDbBlockBegin
  2
FXTIP_CIVIL_S
 70
     0
 10
0.0
 20
0.0
 30
0.0
  3
FXTIP_CIVIL_S
  1
FXTIP_CIVIL_S
  0
LINE
  5
A7
330
A4
100
AcDbEntity
  8
0
  6
Continuous
 62
     0
370
    -2
100
AcDbLine
 10
0.0
 20
0.0
 30
0.0
 11
-1.0
 21
0.0000000000000002
 31
0.0
  0
LINE
  5
A8
330
A4
100
AcDbEntity
  8
0
  6
Continuous
 62
     0
370
    -2
100
AcDbLine
 10
0.0
 20
-0.125
 30
0.0
 11
-1.0
 21
-0.1249999999999998
 31
0.0
  0
LINE
  5
A9
330
A4
100
AcDbEntity
  8
0
  6
Continuous
 62
     0
370
    -2
100
AcDbLine
 10
0.0
 20
-0.25
 30
0.0
 11
-1.0
 21
-0.2499999999999999
 31
0.0
  0
ENDBLK
  5
A6
330
A4
100
AcDbEntity
  8
0
100
AcDbBlockEnd
  0
BLOCK
  5
AB
330
AA
100
AcDbEntity
  8
0
100
AcDbBlockBegin
  2
FXTIP_CIVIL_E
 70
     0
 10
0.0
 20
0.0
 30
0.0
  3
FXTIP_CIVIL_E
  1
FXTIP_CIVIL_E
  0
LINE
  5
AD
330
AA
100
AcDbEntity
  8
0
  6
Continuous
 62
     0
370
    -2
100
AcDbLine
 10
0.0
 20
0.0
 30
0.0
 11
-1.0
 21
0.0
 31
0.0
  0
LINE
  5
AE
330
AA
100
AcDbEntity
  8
0
  6
Continuous
 62
     0
370
    -2
100
AcDbLine
 10
0.0
 20
0.125
 30
0.0
 11
-1.0
 21
0.125
 31
0.0
  0
LINE
  5
AF
330
AA
100
AcDbEntity
  8
0
  6
Continuous
 62
     0
370
    -2
100
AcDbLine
 10
0.0
 20
0.25
 30
0.0
 11
-1.0
 21
0.25
 31
0.0
  0
ENDBLK
  5
AC
330
AA
100
AcDbEntity
  8
0
100
AcDbBlockEnd
  0
BLOCK
  5
B1
330
B0
100
AcDbEntity
  8
0
100
AcDbBlockBegin
  2
FXTIP_WHITEDOT_S
 70
     0
 10
0.0
 20
0.0
 30
0.0
  3
FXTIP_WHITEDOT_S
  1
FXTIP_WHITEDOT_S
  0
LINE
  5
B3
330
B0
100
AcDbEntity
  8
0
  6
Continuous
 62
     0
370
    -2
100
AcDbLine
 10
0.0
 20
0.0
 30
0.0
 11
-1.0
 21
0.0000000000000001
 31
0.0
  0
CIRCLE
  5
B4
330
B0
100
AcDbEntity
  8
0
  6
Continuous
 62
     0
370
    -2
100
AcDbCircle
 10
0.0
 20
0.0
 30
0.0
 40
0.25
  0
ENDBLK
  5
B2
330
B0
100
AcDbEntity
  8
0
100
AcDbBlockEnd
  0
BLOCK
  5
B6
330
B5
100
AcDbEntity
  8
0
100
AcDbBlockBegin
  2
FXTIP_WHITEDOT_E
 70
     0
 10
0.0
 20
0.0
 30
0.0
  3
FXTIP_WHITEDOT_E
  1
FXTIP_WHITEDOT_E
  0
LINE
  5
B8
330
B5
100
AcDbEntity
  8
0
  6
Continuous
 62
     0
370
    -2
100
AcDbLine
 10
0.0
 20
0.0
 30
0.0
 11
-1.0
 21
0.0
 31
0.0
  0
CIRCLE
  5
B9
330
B5
100
AcDbEntity
  8
0
  6
Continuous
 62
     0
370
    -2
100
AcDbCircle
 10
0.0
 20
0.0
 30
0.0
 40
0.25
  0
ENDBLK
  5
B7
330
B5
100
AcDbEntity
  8
0
100
AcDbBlockEnd
  0
BLOCK
  5
BB
330
BA
100
AcDbEntity
  8
0
100
AcDbBlockBegin
  2
FXTIP_UPARROW_S
 70
     0
 10
0.0
 20
0.0
 30
0.0
  3
FXTIP_UPARROW_S
  1
FXTIP_UPARROW_S
  0
LINE
  5
BD
330
BA
100
AcDbEntity
  8
0
  6
Continuous
 62
     0
370
    -2
100
AcDbLine
 10
0.0
 20
0.0
 30
0.0
 11
-1.0
 21
0.0000000000000001
 31
0.0
  0
LINE
  5
BE
330
BA
100
AcDbEntity
  8
0
  6
Continuous
 62
     0
370
    -2
100
AcDbLine
 10
0.0
 20
0.0
 30
0.0
 11
-0.9659258262890683
 21
-0.2588190451025206
 31
0.0
  0
ENDBLK
  5
BC
330
BA
100
AcDbEntity
  8
0
100
AcDbBlockEnd
  0
BLOCK
  5
C0
330
BF
100
AcDbEntity
  8
0
100
AcDbBlockBegin
  2
FXTIP_UPARROW_E
 70
     0
 10
0.0
 20
0.0
 30
0.0
  3
FXTIP_UPARROW_E
  1
FXTIP_UPARROW_E
  0
LINE
  5
C2
330
BF
100
AcDbEntity
  8
0
  6
Continuous
 62
     0
370
    -2
100
AcDbLine
 10
0.0
 20
0.0
 30
0.0
 11
-1.0
 21
0.0
 31
0.0
  0
LINE
  5
C3
330
BF
100
AcDbEntity
  8
0
  6
Continuous
 62
     0
370
    -2
100
AcDbLine
 10
0.0
 20
0.0
 30
0.0
 11
-0.9659258262890683
 21
0.2588190451025207
 31
0.0
  0
ENDBLK
  5
C1
330
BF
100
AcDbEntity
  8
0
100
AcDbBlockEnd
  0
BLOCK
  5
C5
330
C4
100
AcDbEntity
  8
0
100
AcDbBlockBegin
  2
FXTIP_DOWNARROW_S
 70
     0
 10
0.0
 20
0.0
 30
0.0
  3
FXTIP_DOWNARROW_S
  1
FXTIP_DOWNARROW_S
  0
LINE
  5
C7
330
C4
100
AcDbEntity
  8
0
  6
Continuous
 62
     0
370
    -2
100
AcDbLine
 10
0.0
 20
0.0
 30
0.0
 11
-1.0
 21
0.0000000000000001
 31
0.0
  0
LINE
  5
C8
330
C4
100
AcDbEntity
  8
0
  6
Continuous
 62
     0
370
    -2
100
AcDbLine
 10
0.0
 20
0.0
 30
0.0
 11
-0.9659258262890683
 21
0.2588190451025209
 31
0.0
  0
ENDBLK
  5
C6
330
C4
100
AcDbEntity
  8
0
100
AcDbBlockEnd
  0
BLOCK
  5
CA
330
C9
100
AcDbEntity
  8
0
100
AcDbBlockBegin
  2
FXTIP_DOWNARROW_E
 70
     0
 10
0.0
 20
0.0
 30
0.0
  3
FXTIP_DOWNARROW_E
  1
FXTIP_DOWNARROW_E
  0
LINE
  5
CC
330
C9
100
AcDbEntity
  8
0
  6
Continuous
 62
     0
370
    -2
100
AcDbLine
 10
0.0
 20
0.0
 30
0.0
 11
-1.0
 21
0.0
 31
0.0
  0
LINE
  5
CD
330
C9
100
AcDbEntity
  8
0
  6
Continuous
 62
     0
370
    -2
100
AcDbLine
 10
0.0
 20
0.0
 30
0.0
 11
-0.9659258262890683
 21
-0.2588190451025207
 31
0.0
  0
ENDBLK
  5
CB
330
C9
100
AcDbEntity
  8
0
100
AcDbBlockEnd
  0
BLOCK
  5
CF
330
CE
100
AcDbEntity
  8
0
100
AcDbBlockBegin
  2
FXTIP_BLACKTRIANGLE_S
 70
     0
 10
0.0
 20
0.0
 30
0.0
  3
FXTIP_BLACKTRIANGLE_S
  1
FXTIP_BLACKTRIANGLE_S
  0
LINE
  5
D1
330
CE
100
AcDbEntity
  8
0
  6
Continuous
 62
     0
370
    -2
100
AcDbLine
 10
0.0
 20
0.0
 30
0.0
 11
-1.0
 21
0.0000000000000001
 31
0.0
  0
SOLID
  5
D2
330
CE
100
AcDbEntity
  8
0
  6
Continuous
 62
     0
370
    -2
100
AcDbTrace
 10
0.0
 20
0.0
 30
0.0
 11
-0.9659258262890683
 21
-0.2588190451025206
 31
0.0
 12
-0.9659258262890683
 22
0.2588190451025209
 32
0.0
 13
-0.9659258262890683
 23
0.2588190451025209
 33
0.0
  0
ENDBLK
  5
D0
330
CE
100
AcDbEntity
  8
0
100
AcDbBlockEnd
  0
BLOCK
  5
D4
330
D3
100
AcDbEntity
  8
0
100
AcDbBlockBegin
  2
FXTIP_BLACKTRIANGLE_E
 70
     0
 10
0.0
 20
0.0
 30
0.0
  3
FXTIP_BLACKTRIANGLE_E
  1
FXTIP_BLACKTRIANGLE_E
  0
LINE
  5
D6
330
D3
100
AcDbEntity
  8
0
  6
Continuous
 62
     0
370
    -2
100
AcDbLine
 10
0.0
 20
0.0
 30
0.0
 11
-1.0
 21
0.0
 31
0.0
  0
SOLID
  5
D7
330
D3
100
AcDbEntity
  8
0
  6
Continuous
 62
     0
370
    -2
100
AcDbTrace
 10
0.0
 20
0.0
 30
0.0
 11
-0.9659258262890683
 21
0.2588190451025207
 31
0.0
 12
-0.9659258262890683
 22
-0.2588190451025207
 32
0.0
 13
-0.9659258262890683
 23
-0.2588190451025207
 33
0.0
  0
ENDBLK
  5
D5
330
D3
100
AcDbEntity
  8
0
100
AcDbBlockEnd
  0
BLOCK
  5
214
330
213
100
AcDbEntity
  8
0
100
AcDbBlockBegin
  2
BLKF023
 70
     0
 10
0.0
 20
0.0
 30
0.0
  3
BLKF023
  1
BLKF023
  0
TEXT
  5
217
330
213
100
AcDbEntity
  8
0
  6
ByBlock
 62
     0
370
    -2
100
AcDbText
 10
29.62158966064453
 20
64.52881991863251
 30
0.0
 40
2.0
  1
１０
 50
90.0
 41
0.8454545519568705
  7
FX_VECTOR
 72
     5
 11
29.62158966064453
 21
67.18596279621124
 31
0.0
100
AcDbText
  0
TEXT
  5
218
330
213
100
AcDbEntity
  8
0
  6
ByBlock
 62
     0
370
    -2
100
AcDbText
 10
27.66920471191406
 20
67.1314195394516
 30
0.0
 40
1.0
  1
±０．２
 50
90.0
 41
0.743801788850264
  7
FX_VECTOR
 72
     5
 11
27.66920471191406
 21
69.8586927652359
 31
0.0
100
AcDbText
  0
LINE
  5
219
330
213
100
AcDbEntity
  8
0
  6
ByBlock
 62
     0
370
    -2
100
AcDbLine
 10
30.12158836170208
 20
62.01453800000001
 30
0.0
 11
30.12158836170208
 21
72.014538
 31
0.0
  0
LINE
  5
21A
330
213
100
AcDbEntity
  8
0
  6
ByBlock
 62
     0
370
    -2
100
AcDbLine
 10
30.12158836170208
 20
62.01453800000001
 30
0.0
 11
29.86276936170208
 21
62.980464
 31
0.0
  0
LINE
  5
21B
330
213
100
AcDbEntity
  8
0
  6
ByBlock
 62
     0
370
    -2
100
AcDbLine
 10
30.12158836170208
 20
62.01453800000001
 30
0.0
 11
30.38040736170208
 21
62.980464
 31
0.0
  0
LINE
  5
21C
330
213
100
AcDbEntity
  8
0
  6
ByBlock
 62
     0
370
    -2
100
AcDbLine
 10
30.12158836170208
 20
72.014538
 30
0.0
 11
29.86276936170208
 21
71.048613
 31
0.0
  0
LINE
  5
21D
330
213
100
AcDbEntity
  8
0
  6
ByBlock
 62
     0
370
    -2
100
AcDbLine
 10
30.12158836170208
 20
72.014538
 30
0.0
 11
30.38040736170208
 21
71.048613
 31
0.0
  0
LINE
  5
21E
330
213
100
AcDbEntity
  8
0
  6
ByBlock
 62
     0
370
    -2
100
AcDbLine
 10
33.91199836170209
 20
62.01453800000001
 30
0.0
 11
29.62158836170208
 21
62.01453800000001
 31
0.0
  0
LINE
  5
21F
330
213
100
AcDbEntity
  8
0
  6
ByBlock
 62
     0
370
    -2
100
AcDbLine
 10
33.91199836170209
 20
72.014538
 30
0.0
 11
29.62158836170208
 21
72.014538
 31
0.0
  0
ENDBLK
  5
215
330
213
100
AcDbEntity
  8
0
100
AcDbBlockEnd
  0
BLOCK
  5
221
330
220
100
AcDbEntity
  8
0
100
AcDbBlockBegin
  2
BLKF024
 70
     0
 10
0.0
 20
0.0
 30
0.0
  3
BLKF024
  1
BLKF024
  0
TEXT
  5
224
330
220
100
AcDbEntity
  8
0
  6
ByBlock
 62
     0
370
    -2
100
AcDbText
 10
29.62158966064453
 20
74.52881991863251
 30
0.0
 40
2.0
  1
１０
 50
90.0
 41
0.8454545519568705
  7
FX_VECTOR
 72
     5
 11
29.62158966064453
 21
77.18596279621124
 31
0.0
100
AcDbText
  0
TEXT
  5
225
330
220
100
AcDbEntity
  8
0
  6
ByBlock
 62
     0
370
    -2
100
AcDbText
 10
27.66920471191406
 20
77.1314195394516
 30
0.0
 40
1.0
  1
±０．２
 50
90.0
 41
0.743801788850264
  7
FX_VECTOR
 72
     5
 11
27.66920471191406
 21
79.8586927652359
 31
0.0
100
AcDbText
  0
LINE
  5
226
330
220
100
AcDbEntity
  8
0
  6
ByBlock
 62
     0
370
    -2
100
AcDbLine
 10
30.12158836170208
 20
72.014538
 30
0.0
 11
30.12158836170208
 21
82.014538
 31
0.0
  0
LINE
  5
227
330
220
100
AcDbEntity
  8
0
  6
ByBlock
 62
     0
370
    -2
100
AcDbLine
 10
30.12158836170208
 20
72.014538
 30
0.0
 11
29.86276936170208
 21
72.980464
 31
0.0
  0
LINE
  5
228
330
220
100
AcDbEntity
  8
0
  6
ByBlock
 62
     0
370
    -2
100
AcDbLine
 10
30.12158836170208
 20
72.014538
 30
0.0
 11
30.38040736170208
 21
72.980464
 31
0.0
  0
LINE
  5
229
330
220
100
AcDbEntity
  8
0
  6
ByBlock
 62
     0
370
    -2
100
AcDbLine
 10
30.12158836170208
 20
82.014538
 30
0.0
 11
29.86276936170208
 21
81.048613
 31
0.0
  0
LINE
  5
22A
330
220
100
AcDbEntity
  8
0
  6
ByBlock
 62
     0
370
    -2
100
AcDbLine
 10
30.12158836170208
 20
82.014538
 30
0.0
 11
30.38040736170208
 21
81.048613
 31
0.0
  0
LINE
  5
22B
330
220
100
AcDbEntity
  8
0
  6
ByBlock
 62
     0
370
    -2
100
AcDbLine
 10
33.91199836170209
 20
82.014538
 30
0.0
 11
29.62158836170208
 21
82.014538
 31
0.0
  0
ENDBLK
  5
222
330
220
100
AcDbEntity
  8
0
100
AcDbBlockEnd
  0
BLOCK
  5
22D
330
22C
100
AcDbEntity
  8
0
100
AcDbBlockBegin
  2
BLKF025
 70
     0
 10
0.0
 20
0.0
 30
0.0
  3
BLKF025
  1
BLKF025
  0
TEXT
  5
230
330
22C
100
AcDbEntity
  8
0
  6
ByBlock
 62
     0
370
    -2
100
AcDbText
 10
46.89771664142609
 20
97.5825424194336
 30
0.0
 40
2.0
  1
１０
 50
180.0
 41
0.8454545519568705
  7
FX_VECTOR
 72
     5
 11
44.24057376384735
 21
97.5825424194336
 31
0.0
100
AcDbText
  0
TEXT
  5
231
330
22C
100
AcDbEntity
  8
0
  6
ByBlock
 62
     0
370
    -2
100
AcDbText
 10
44.29511702060699
 20
95.63015747070312
 30
0.0
 40
1.0
  1
±０．２
 50
180.0
 41
0.743801788850264
  7
FX_VECTOR
 72
     5
 11
41.56784379482269
 21
95.63015747070312
 31
0.0
100
AcDbText
  0
LINE
  5
232
330
22C
100
AcDbEntity
  8
0
  6
ByBlock
 62
     0
370
    -2
100
AcDbLine
 10
49.41199836170209
 20
98.082544
 30
0.0
 11
39.41199836170209
 21
98.082544
 31
0.0
  0
LINE
  5
233
330
22C
100
AcDbEntity
  8
0
  6
ByBlock
 62
     0
370
    -2
100
AcDbLine
 10
49.41199836170209
 20
98.082544
 30
0.0
 11
48.44607336170209
 21
97.823725
 31
0.0
  0
LINE
  5
234
330
22C
100
AcDbEntity
  8
0
  6
ByBlock
 62
     0
370
    -2
100
AcDbLine
 10
49.41199836170209
 20
98.082544
 30
0.0
 11
48.44607336170209
 21
98.341363
 31
0.0
  0
LINE
  5
235
330
22C
100
AcDbEntity
  8
0
  6
ByBlock
 62
     0
370
    -2
100
AcDbLine
 10
39.41199836170209
 20
98.082544
 30
0.0
 11
40.37792436170209
 21
97.823725
 31
0.0
  0
LINE
  5
236
330
22C
100
AcDbEntity
  8
0
  6
ByBlock
 62
     0
370
    -2
100
AcDbLine
 10
39.41199836170209
 20
98.082544
 30
0.0
 11
40.37792436170209
 21
98.341363
 31
0.0
  0
LINE
  5
237
330
22C
100
AcDbEntity
  8
0
  6
ByBlock
 62
     0
370
    -2
100
AcDbLine
 10
49.41199836170209
 20
92.514538
 30
0.0
 11
49.41199836170209
 21
98.582544
 31
0.0
  0
LINE
  5
238
330
22C
100
AcDbEntity
  8
0
  6
ByBlock
 62
     0
370
    -2
100
AcDbLine
 10
39.41199836170209
 20
92.514538
 30
0.0
 11
39.41199836170209
 21
98.582544
 31
0.0
  0
ENDBLK
  5
22E
330
22C
100
AcDbEntity
  8
0
100
AcDbBlockEnd
  0
BLOCK
  5
247
330
246
100
AcDbEntity
  8
0
100
AcDbBlockBegin
  2
BLKF026
 70
     0
 10
0.0
 20
0.0
 30
0.0
  3
BLKF026
  1
BLKF026
  0
LINE
  5
24A
330
246
100
AcDbEntity
  8
0
  6
ByBlock
 62
     0
370
    -2
100
AcDbLine
 10
38.07570736170209
 20
83.634516
 30
0.0
 11
27.29679936170209
 21
96.701716
 31
0.0
  0
LINE
  5
24B
330
246
100
AcDbEntity
  8
0
  6
ByBlock
 62
     0
370
    -2
100
AcDbLine
 10
38.07570736170209
 20
83.634516
 30
0.0
 11
37.26140336170208
 21
84.214954
 31
0.0
  0
LINE
  5
24C
330
246
100
AcDbEntity
  8
0
  6
ByBlock
 62
     0
370
    -2
100
AcDbLine
 10
38.07570736170209
 20
83.634516
 30
0.0
 11
37.66071836170208
 21
84.544342
 31
0.0
  0
LINE
  5
24D
330
246
100
AcDbEntity
  8
0
  6
ByBlock
 62
     0
370
    -2
100
AcDbLine
 10
27.29679936170209
 20
96.701716
 30
0.0
 11
27.29679936170209
 21
114.201716
 31
0.0
  0
TEXT
  5
24E
330
246
100
AcDbEntity
  8
0
  6
ByBlock
 62
     0
370
    -2
100
AcDbText
 10
26.79680633544922
 20
97.42269992828369
 30
0.0
 40
2.0
  1
２－φ４．２キリ穴貫通
 50
90.0
 41
0.7893033687884994
  7
FX_VECTOR
 72
     5
 11
26.79680633544922
 21
112.0811910629272
 31
0.0
100
AcDbText
  0
ENDBLK
  5
248
330
246
100
AcDbEntity
  8
0
100
AcDbBlockEnd
  0
BLOCK
  5
262
330
261
100
AcDbEntity
  8
0
100
AcDbBlockBegin
  2
BLKF027
 70
     0
 10
0.0
 20
0.0
 30
0.0
  3
BLKF027
  1
BLKF027
  0
TEXT
  5
265
330
261
100
AcDbEntity
  8
0
  6
ByBlock
 62
     0
370
    -2
100
AcDbText
 10
44.89771950244904
 20
40.90482330322266
 30
0.0
 40
2.0
  1
１４
 50
180.0
 41
0.8727272965691307
  7
FX_VECTOR
 72
     5
 11
42.15486228466034
 21
40.90482330322266
 31
0.0
100
AcDbText
  0
TEXT
  5
266
330
261
100
AcDbEntity
  8
0
  6
ByBlock
 62
     0
370
    -2
100
AcDbText
 10
42.29511702060699
 20
38.95244216918945
 30
0.0
 40
1.0
  1
±０．２
 50
180.0
 41
0.743801788850264
  7
FX_VECTOR
 72
     5
 11
39.56784379482269
 21
38.95244216918945
 31
0.0
100
AcDbText
  0
LINE
  5
267
330
261
100
AcDbEntity
  8
0
  6
ByBlock
 62
     0
370
    -2
100
AcDbLine
 10
49.41199836170208
 20
41.40482600000001
 30
0.0
 11
35.41199836170209
 21
41.40482600000001
 31
0.0
  0
LINE
  5
268
330
261
100
AcDbEntity
  8
0
  6
ByBlock
 62
     0
370
    -2
100
AcDbLine
 10
49.41199836170208
 20
41.40482600000001
 30
0.0
 11
48.44607336170208
 21
41.146007
 31
0.0
  0
LINE
  5
269
330
261
100
AcDbEntity
  8
0
  6
ByBlock
 62
     0
370
    -2
100
AcDbLine
 10
49.41199836170208
 20
41.40482600000001
 30
0.0
 11
48.44607336170208
 21
41.66364500000001
 31
0.0
  0
LINE
  5
26A
330
261
100
AcDbEntity
  8
0
  6
ByBlock
 62
     0
370
    -2
100
AcDbLine
 10
35.41199836170209
 20
41.40482600000001
 30
0.0
 11
36.37792436170209
 21
41.146007
 31
0.0
  0
LINE
  5
26B
330
261
100
AcDbEntity
  8
0
  6
ByBlock
 62
     0
370
    -2
100
AcDbLine
 10
35.41199836170209
 20
41.40482600000001
 30
0.0
 11
36.37792436170209
 21
41.66364500000001
 31
0.0
  0
LINE
  5
26C
330
261
100
AcDbEntity
  8
0
  6
ByBlock
 62
     0
370
    -2
100
AcDbLine
 10
49.41199836170208
 20
51.51453800000001
 30
0.0
 11
49.41199836170208
 21
40.90482600000001
 31
0.0
  0
LINE
  5
26D
330
261
100
AcDbEntity
  8
0
  6
ByBlock
 62
     0
370
    -2
100
AcDbLine
 10
35.41199836170209
 20
51.51453800000001
 30
0.0
 11
35.41199836170209
 21
40.90482600000001
 31
0.0
  0
ENDBLK
  5
263
330
261
100
AcDbEntity
  8
0
100
AcDbBlockEnd
  0
BLOCK
  5
26F
330
26E
100
AcDbEntity
  8
0
100
AcDbBlockBegin
  2
BLKF028
 70
     0
 10
0.0
 20
0.0
 30
0.0
  3
BLKF028
  1
BLKF028
  0
TEXT
  5
272
330
26E
100
AcDbEntity
  8
0
  6
ByBlock
 62
     0
370
    -2
100
AcDbText
 10
79.54383194446564
 20
40.90482711791992
 30
0.0
 40
2.0
  1
１９
 50
180.0
 41
0.8181818073446102
  7
FX_VECTOR
 72
     5
 11
76.97240340709686
 21
40.90482711791992
 31
0.0
100
AcDbText
  0
TEXT
  5
273
330
26E
100
AcDbEntity
  8
0
  6
ByBlock
 62
     0
370
    -2
100
AcDbText
 10
76.94122755527496
 20
38.95244598388672
 30
0.0
 40
1.0
  1
±０．２
 50
180.0
 41
0.743801788850264
  7
FX_VECTOR
 72
     5
 11
74.21395432949066
 21
38.95244598388672
 31
0.0
100
AcDbText
  0
LINE
  5
274
330
26E
100
AcDbEntity
  8
0
  6
ByBlock
 62
     0
370
    -2
100
AcDbLine
 10
86.55811136170209
 20
41.404826
 30
0.0
 11
67.55811136170209
 21
41.404826
 31
0.0
  0
LINE
  5
275
330
26E
100
AcDbEntity
  8
0
  6
ByBlock
 62
     0
370
    -2
100
AcDbLine
 10
86.55811136170209
 20
41.404826
 30
0.0
 11
85.5921853617021
 21
41.146007
 31
0.0
  0
LINE
  5
276
330
26E
100
AcDbEntity
  8
0
  6
ByBlock
 62
     0
370
    -2
100
AcDbLine
 10
86.55811136170209
 20
41.404826
 30
0.0
 11
85.5921853617021
 21
41.663645
 31
0.0
  0
LINE
  5
277
330
26E
100
AcDbEntity
  8
0
  6
ByBlock
 62
     0
370
    -2
100
AcDbLine
 10
67.55811136170209
 20
41.404826
 30
0.0
 11
68.52403736170209
 21
41.146007
 31
0.0
  0
LINE
  5
278
330
26E
100
AcDbEntity
  8
0
  6
ByBlock
 62
     0
370
    -2
100
AcDbLine
 10
67.55811136170209
 20
41.404826
 30
0.0
 11
68.52403736170209
 21
41.663645
 31
0.0
  0
LINE
  5
279
330
26E
100
AcDbEntity
  8
0
  6
ByBlock
 62
     0
370
    -2
100
AcDbLine
 10
86.55811136170209
 20
51.514538
 30
0.0
 11
86.55811136170209
 21
40.904826
 31
0.0
  0
LINE
  5
27A
330
26E
100
AcDbEntity
  8
0
  6
ByBlock
 62
     0
370
    -2
100
AcDbLine
 10
67.55811136170209
 20
51.514538
 30
0.0
 11
67.55811136170209
 21
40.904826
 31
0.0
  0
ENDBLK
  5
270
330
26E
100
AcDbEntity
  8
0
100
AcDbBlockEnd
  0
BLOCK
  5
27C
330
27B
100
AcDbEntity
  8
0
100
AcDbBlockBegin
  2
BLKF029
 70
     0
 10
0.0
 20
0.0
 30
0.0
  3
BLKF029
  1
BLKF029
  0
TEXT
  5
27F
330
27B
100
AcDbEntity
  8
0
  6
ByBlock
 62
     0
370
    -2
100
AcDbText
 10
33.48663651943207
 20
98.24920654296875
 30
0.0
 40
2.0
  1
（４）
 50
180.0
 41
0.6617646848454195
  7
FX_VECTOR
 72
     5
 11
30.27235090732574
 21
98.24920654296875
 31
0.0
100
AcDbText
  0
LINE
  5
280
330
27B
100
AcDbEntity
  8
0
  6
ByBlock
 62
     0
370
    -2
100
AcDbLine
 10
39.41199836170209
 20
98.082544
 30
0.0
 11
35.41199836170209
 21
98.082544
 31
0.0
  0
LINE
  5
281
330
27B
100
AcDbEntity
  8
0
  6
ByBlock
 62
     0
370
    -2
100
AcDbLine
 10
39.41199836170209
 20
92.514538
 30
0.0
 11
39.41199836170209
 21
98.582544
 31
0.0
  0
LINE
  5
282
330
27B
100
AcDbEntity
  8
0
  6
ByBlock
 62
     0
370
    -2
100
AcDbLine
 10
35.41199836170209
 20
92.514538
 30
0.0
 11
35.41199836170209
 21
98.582544
 31
0.0
  0
LINE
  5
283
330
27B
100
AcDbEntity
  8
0
  6
ByBlock
 62
     0
370
    -2
100
AcDbLine
 10
42.41199836170209
 20
98.082544
 30
0.0
 11
39.41199836170209
 21
98.082544
 31
0.0
  0
LINE
  5
284
330
27B
100
AcDbEntity
  8
0
  6
ByBlock
 62
     0
370
    -2
100
AcDbLine
 10
39.41199836170209
 20
98.082544
 30
0.0
 11
40.37792436170209
 21
97.823725
 31
0.0
  0
LINE
  5
285
330
27B
100
AcDbEntity
  8
0
  6
ByBlock
 62
     0
370
    -2
100
AcDbLine
 10
39.41199836170209
 20
98.082544
 30
0.0
 11
40.37792436170209
 21
98.341363
 31
0.0
  0
LINE
  5
286
330
27B
100
AcDbEntity
  8
0
  6
ByBlock
 62
     0
370
    -2
100
AcDbLine
 10
35.41199836170209
 20
98.082544
 30
0.0
 11
29.28987236170208
 21
98.082544
 31
0.0
  0
LINE
  5
287
330
27B
100
AcDbEntity
  8
0
  6
ByBlock
 62
     0
370
    -2
100
AcDbLine
 10
35.41199836170209
 20
98.082544
 30
0.0
 11
34.44607336170208
 21
97.823725
 31
0.0
  0
LINE
  5
288
330
27B
100
AcDbEntity
  8
0
  6
ByBlock
 62
     0
370
    -2
100
AcDbLine
 10
35.41199836170209
 20
98.082544
 30
0.0
 11
34.44607336170208
 21
98.341363
 31
0.0
  0
ENDBLK
  5
27D
330
27B
100
AcDbEntity
  8
0
100
AcDbBlockEnd
  0
BLOCK
  5
28E
330
28D
100
AcDbEntity
  8
0
100
AcDbBlockBegin
  2
BLKF030
 70
     0
 10
0.0
 20
0.0
 30
0.0
  3
BLKF030
  1
BLKF030
  0
TEXT
  5
291
330
28D
100
AcDbEntity
  8
0
  6
ByBlock
 62
     0
370
    -2
100
AcDbText
 10
24.35704040527344
 20
69.27168560028076
 30
0.0
 40
2.0
  1
４０
 50
90.0
 41
0.9272727099331944
  7
FX_VECTOR
 72
     5
 11
24.35704040527344
 21
72.1859712600708
 31
0.0
100
AcDbText
  0
TEXT
  5
292
330
28D
100
AcDbEntity
  8
0
  6
ByBlock
 62
     0
370
    -2
100
AcDbText
 10
22.40465545654297
 20
72.13142716884613
 30
0.0
 40
1.0
  1
±０．３
 50
90.0
 41
0.743801788850264
  7
FX_VECTOR
 72
     5
 11
22.40465545654297
 21
74.85870039463043
 31
0.0
100
AcDbText
  0
LINE
  5
293
330
28D
100
AcDbEntity
  8
0
  6
ByBlock
 62
     0
370
    -2
100
AcDbLine
 10
24.85703936170208
 20
52.01453800000001
 30
0.0
 11
24.85703936170208
 21
92.014538
 31
0.0
  0
LINE
  5
294
330
28D
100
AcDbEntity
  8
0
  6
ByBlock
 62
     0
370
    -2
100
AcDbLine
 10
24.85703936170208
 20
52.01453800000001
 30
0.0
 11
24.59822036170208
 21
52.980464
 31
0.0
  0
LINE
  5
295
330
28D
100
AcDbEntity
  8
0
  6
ByBlock
 62
     0
370
    -2
100
AcDbLine
 10
24.85703936170208
 20
52.01453800000001
 30
0.0
 11
25.11585836170208
 21
52.980464
 31
0.0
  0
LINE
  5
296
330
28D
100
AcDbEntity
  8
0
  6
ByBlock
 62
     0
370
    -2
100
AcDbLine
 10
24.85703936170208
 20
92.014538
 30
0.0
 11
24.59822036170208
 21
91.048613
 31
0.0
  0
LINE
  5
297
330
28D
100
AcDbEntity
  8
0
  6
ByBlock
 62
     0
370
    -2
100
AcDbLine
 10
24.85703936170208
 20
92.014538
 30
0.0
 11
25.11585836170208
 21
91.048613
 31
0.0
  0
LINE
  5
298
330
28D
100
AcDbEntity
  8
0
  6
ByBlock
 62
     0
370
    -2
100
AcDbLine
 10
34.91199836170209
 20
52.01453800000001
 30
0.0
 11
24.35703936170208
 21
52.01453800000001
 31
0.0
  0
LINE
  5
299
330
28D
100
AcDbEntity
  8
0
  6
ByBlock
 62
     0
370
    -2
100
AcDbLine
 10
34.91199836170209
 20
92.014538
 30
0.0
 11
24.35703936170208
 21
92.014538
 31
0.0
  0
ENDBLK
  5
28F
330
28D
100
AcDbEntity
  8
0
100
AcDbBlockEnd
  0
ENDSEC
  0
SECTION
  2
ENTITIES
  0
LINE
  5
DB
330
1F
100
AcDbEntity
  8
CSLAYER1
 62
     7
100
AcDbLine
 10
17.4414893617021
 20
140.25
 30
0.0
 11
17.4414893617021
 21
137.25
 31
0.0
  0
LINE
  5
DC
330
1F
100
AcDbEntity
  8
CSLAYER1
 62
     7
100
AcDbLine
 10
21.4414893617021
 20
138.0
 30
0.0
 11
21.4414893617021
 21
139.5
 31
0.0
  0
LINE
  5
DD
330
1F
100
AcDbEntity
  8
CSLAYER1
 62
     7
100
AcDbLine
 10
17.4414893617021
 20
140.25
 30
0.0
 11
21.4414893617021
 21
139.5
 31
0.0
  0
LINE
  5
DE
330
1F
100
AcDbEntity
  8
CSLAYER1
 62
     7
100
AcDbLine
 10
21.4414893617021
 20
138.0
 30
0.0
 11
17.4414893617021
 21
137.25
 31
0.0
  0
LINE
  5
E0
330
1F
100
AcDbEntity
  8
CSLAYER1
  6
CENTER
 62
     7
100
AcDbLine
 10
16.4414893617021
 20
138.75
 30
0.0
 11
27.9414893617021
 21
138.75
 31
0.0
  0
CIRCLE
  5
E1
330
1F
100
AcDbEntity
  8
CSLAYER1
 62
     7
100
AcDbCircle
 10
25.4414893617021
 20
138.75
 30
0.0
 40
0.75
  0
CIRCLE
  5
E2
330
1F
100
AcDbEntity
  8
CSLAYER1
 62
     7
100
AcDbCircle
 10
25.4414893617021
 20
138.75
 30
0.0
 40
1.5
  0
LINE
  5
E3
330
1F
100
AcDbEntity
  8
CSLAYER1
  6
CENTER
 62
     7
100
AcDbLine
 10
25.4414893617021
 20
141.0
 30
0.0
 11
25.4414893617021
 21
136.5
 31
0.0
  0
LINE
  5
E4
330
1F
100
AcDbEntity
  8
CSLAYER1
 62
     7
100
AcDbLine
 10
15.44148936170208
 20
6.250000000000005
 30
0.0
 11
15.4414893617021
 21
142.25
 31
0.0
  0
LINE
  5
E5
330
1F
100
AcDbEntity
  8
CSLAYER1
 62
     7
100
AcDbLine
 10
15.4414893617021
 20
142.25
 30
0.0
 11
102.9414893617021
 21
142.25
 31
0.0
  0
LINE
  5
E6
330
1F
100
AcDbEntity
  8
CSLAYER1
 62
     7
100
AcDbLine
 10
102.9414893617021
 20
142.25
 30
0.0
 11
102.9414893617021
 21
6.25
 31
0.0
  0
LINE
  5
E7
330
1F
100
AcDbEntity
  8
CSLAYER1
 62
     7
100
AcDbLine
 10
15.44148936170208
 20
6.250000000000005
 30
0.0
 11
102.9414893617021
 21
6.25
 31
0.0
  0
LINE
  5
E8
330
1F
100
AcDbEntity
  8
CSLAYER1
 62
     7
100
AcDbLine
 10
4.441489361702082
 20
74.25
 30
0.0
 11
12.94148936170208
 21
74.25
 31
0.0
  0
LINE
  5
E9
330
1F
100
AcDbEntity
  8
CSLAYER1
 62
     7
100
AcDbLine
 10
13.9414893617021
 20
143.75
 30
0.0
 11
104.4414893617021
 21
143.75
 31
0.0
  0
LINE
  5
EA
330
1F
100
AcDbEntity
  8
CSLAYER1
 62
     7
100
AcDbLine
 10
104.4414893617021
 20
143.75
 30
0.0
 11
104.4414893617021
 21
4.75
 31
0.0
  0
LINE
  5
EB
330
1F
100
AcDbEntity
  8
CSLAYER1
 62
     7
100
AcDbLine
 10
13.94148936170208
 20
4.750000000000006
 30
0.0
 11
13.9414893617021
 21
143.75
 31
0.0
  0
LINE
  5
EC
330
1F
100
AcDbEntity
  8
CSLAYER1
 62
     7
100
AcDbLine
 10
13.94148936170208
 20
4.750000000000006
 30
0.0
 11
104.4414893617021
 21
4.75
 31
0.0
  0
LINE
  5
ED
330
1F
100
AcDbEntity
  8
CSLAYER1
 62
     7
100
AcDbLine
 10
102.9414893617021
 20
130.25
 30
0.0
 11
104.4414893617021
 21
130.25
 31
0.0
  0
LINE
  5
EE
330
1F
100
AcDbEntity
  8
CSLAYER1
 62
     7
100
AcDbLine
 10
102.9414893617021
 20
117.75
 30
0.0
 11
104.4414893617021
 21
117.75
 31
0.0
  0
LINE
  5
EF
330
1F
100
AcDbEntity
  8
CSLAYER1
 62
     7
100
AcDbLine
 10
102.9414893617021
 20
105.25
 30
0.0
 11
104.4414893617021
 21
105.25
 31
0.0
  0
LINE
  5
F0
330
1F
100
AcDbEntity
  8
CSLAYER1
 62
     7
100
AcDbLine
 10
102.9414893617021
 20
92.75
 30
0.0
 11
104.4414893617021
 21
92.75
 31
0.0
  0
LINE
  5
F1
330
1F
100
AcDbEntity
  8
CSLAYER1
 62
     7
100
AcDbLine
 10
102.9414893617021
 20
80.25
 30
0.0
 11
104.4414893617021
 21
80.25
 31
0.0
  0
LINE
  5
F2
330
1F
100
AcDbEntity
  8
CSLAYER1
 62
     7
100
AcDbLine
 10
102.9414893617021
 20
67.75
 30
0.0
 11
104.4414893617021
 21
67.75
 31
0.0
  0
LINE
  5
F3
330
1F
100
AcDbEntity
  8
CSLAYER1
 62
     7
100
AcDbLine
 10
102.9414893617021
 20
55.25
 30
0.0
 11
104.4414893617021
 21
55.25
 31
0.0
  0
LINE
  5
F4
330
1F
100
AcDbEntity
  8
CSLAYER1
 62
     7
100
AcDbLine
 10
102.9414893617021
 20
42.75
 30
0.0
 11
104.4414893617021
 21
42.75
 31
0.0
  0
LINE
  5
F5
330
1F
100
AcDbEntity
  8
CSLAYER1
 62
     7
100
AcDbLine
 10
102.9414893617021
 20
30.25
 30
0.0
 11
104.4414893617021
 21
30.25
 31
0.0
  0
LINE
  5
F6
330
1F
100
AcDbEntity
  8
CSLAYER1
 62
     7
100
AcDbLine
 10
102.9414893617021
 20
17.75
 30
0.0
 11
104.4414893617021
 21
17.75
 31
0.0
  0
TEXT
  5
F7
330
1F
100
AcDbEntity
  8
CSLAYER1
 62
     7
100
AcDbText
 10
103.700616016984
 20
136.104248046875
 30
0.0
 40
1.0
  1
１
 41
0.2500000059604645
  7
FX_VECTOR
 72
     5
 11
103.8791874498129
 21
136.104248046875
 31
0.0
100
AcDbText
  0
TEXT
  5
F8
330
1F
100
AcDbEntity
  8
CSLAYER1
 62
     7
100
AcDbText
 10
103.5934677124023
 20
123.5285186767578
 30
0.0
 40
1.0
  1
２
 41
0.7000000000000001
  7
FX_VECTOR
 72
     5
 11
104.0934677124023
 21
123.5285186767578
 31
0.0
100
AcDbText
  0
TEXT
  5
F9
330
1F
100
AcDbEntity
  8
CSLAYER1
 62
     7
100
AcDbText
 10
103.5934677124023
 20
111.0285186767578
 30
0.0
 40
1.0
  1
３
 41
0.7000000000000001
  7
FX_VECTOR
 72
     5
 11
104.0934677124023
 21
111.0285186767578
 31
0.0
100
AcDbText
  0
TEXT
  5
FA
330
1F
100
AcDbEntity
  8
CSLAYER1
 62
     7
100
AcDbText
 10
103.5934709906578
 20
98.52851867675781
 30
0.0
 40
1.0
  1
４
 41
0.7499999761581422
  7
FX_VECTOR
 72
     5
 11
104.1291852593422
 21
98.52851867675781
 31
0.0
100
AcDbText
  0
TEXT
  5
FB
330
1F
100
AcDbEntity
  8
CSLAYER1
 62
     7
100
AcDbText
 10
103.5934677124023
 20
86.02851867675781
 30
0.0
 40
1.0
  1
５
 41
0.7000000000000001
  7
FX_VECTOR
 72
     5
 11
104.0934677124023
 21
86.02851867675781
 31
0.0
100
AcDbText
  0
TEXT
  5
FC
330
1F
100
AcDbEntity
  8
CSLAYER1
 62
     7
100
AcDbText
 10
103.6291852742434
 20
73.52851867675781
 30
0.0
 40
1.0
  1
６
 41
0.6499999821186067
  7
FX_VECTOR
 72
     5
 11
104.0934709757566
 21
73.52851867675781
 31
0.0
100
AcDbText
  0
TEXT
  5
FD
330
1F
100
AcDbEntity
  8
CSLAYER1
 62
     7
100
AcDbText
 10
103.5934677124023
 20
61.02851867675781
 30
0.0
 40
1.0
  1
７
 41
0.7000000000000001
  7
FX_VECTOR
 72
     5
 11
104.0934677124023
 21
61.02851867675781
 31
0.0
100
AcDbText
  0
TEXT
  5
FE
330
1F
100
AcDbEntity
  8
CSLAYER1
 62
     7
100
AcDbText
 10
103.5934677124023
 20
48.52851867675781
 30
0.0
 40
1.0
  1
８
 41
0.7000000000000001
  7
FX_VECTOR
 72
     5
 11
104.0934677124023
 21
48.52851867675781
 31
0.0
100
AcDbText
  0
TEXT
  5
FF
330
1F
100
AcDbEntity
  8
CSLAYER1
 62
     7
100
AcDbText
 10
103.5934720784426
 20
36.02851867675781
 30
0.0
 40
1.0
  1
９
 41
0.6499999821186067
  7
FX_VECTOR
 72
     5
 11
104.0577577799559
 21
36.02851867675781
 31
0.0
100
AcDbText
  0
TEXT
  5
100
330
1F
100
AcDbEntity
  8
CSLAYER1
 62
     7
100
AcDbText
 10
103.3577562570572
 20
23.52851867675781
 30
0.0
 40
1.0
  1
１０
 41
0.5636363679712469
  7
FX_VECTOR
 72
     5
 11
104.2434705495834
 21
23.52851867675781
 31
0.0
100
AcDbText
  0
TEXT
  5
101
330
1F
100
AcDbEntity
  8
CSLAYER1
 62
     7
100
AcDbText
 10
103.3577542901039
 20
11.06031036376953
 30
0.0
 40
1.0
  1
１１
 41
0.4545454653826628
  7
FX_VECTOR
 72
     5
 11
104.0720400214195
 21
11.06031036376953
 31
0.0
100
AcDbText
  0
LINE
  5
102
330
1F
100
AcDbEntity
  8
CSLAYER1
 62
     7
100
AcDbLine
 10
102.9414893617021
 20
127.75
 30
0.0
 11
103.6914893617021
 21
127.75
 31
0.0
  0
LINE
  5
103
330
1F
100
AcDbEntity
  8
CSLAYER1
 62
     7
100
AcDbLine
 10
102.9414893617021
 20
125.25
 30
0.0
 11
103.6914893617021
 21
125.25
 31
0.0
  0
LINE
  5
104
330
1F
100
AcDbEntity
  8
CSLAYER1
 62
     7
100
AcDbLine
 10
103.6914893617021
 20
122.75
 30
0.0
 11
102.9414893617021
 21
122.75
 31
0.0
  0
LINE
  5
105
330
1F
100
AcDbEntity
  8
CSLAYER1
 62
     7
100
AcDbLine
 10
102.9414893617021
 20
120.25
 30
0.0
 11
103.6914893617021
 21
120.25
 31
0.0
  0
LINE
  5
106
330
1F
100
AcDbEntity
  8
CSLAYER1
 62
     7
100
AcDbLine
 10
102.9414893617021
 20
115.25
 30
0.0
 11
103.6914893617021
 21
115.25
 31
0.0
  0
LINE
  5
107
330
1F
100
AcDbEntity
  8
CSLAYER1
 62
     7
100
AcDbLine
 10
102.9414893617021
 20
112.75
 30
0.0
 11
103.6914893617021
 21
112.75
 31
0.0
  0
LINE
  5
108
330
1F
100
AcDbEntity
  8
CSLAYER1
 62
     7
100
AcDbLine
 10
103.6914893617021
 20
110.25
 30
0.0
 11
102.9414893617021
 21
110.25
 31
0.0
  0
LINE
  5
109
330
1F
100
AcDbEntity
  8
CSLAYER1
 62
     7
100
AcDbLine
 10
102.9414893617021
 20
107.75
 30
0.0
 11
103.6914893617021
 21
107.75
 31
0.0
  0
LINE
  5
10A
330
1F
100
AcDbEntity
  8
CSLAYER1
 62
     7
100
AcDbLine
 10
102.9414893617021
 20
102.75
 30
0.0
 11
103.6914893617021
 21
102.75
 31
0.0
  0
LINE
  5
10B
330
1F
100
AcDbEntity
  8
CSLAYER1
 62
     7
100
AcDbLine
 10
102.9414893617021
 20
100.25
 30
0.0
 11
103.6914893617021
 21
100.25
 31
0.0
  0
LINE
  5
10C
330
1F
100
AcDbEntity
  8
CSLAYER1
 62
     7
100
AcDbLine
 10
103.6914893617021
 20
97.75
 30
0.0
 11
102.9414893617021
 21
97.75
 31
0.0
  0
LINE
  5
10D
330
1F
100
AcDbEntity
  8
CSLAYER1
 62
     7
100
AcDbLine
 10
102.9414893617021
 20
95.25
 30
0.0
 11
103.6914893617021
 21
95.25
 31
0.0
  0
LINE
  5
10E
330
1F
100
AcDbEntity
  8
CSLAYER1
 62
     7
100
AcDbLine
 10
102.9414893617021
 20
90.25
 30
0.0
 11
103.6914893617021
 21
90.25
 31
0.0
  0
LINE
  5
10F
330
1F
100
AcDbEntity
  8
CSLAYER1
 62
     7
100
AcDbLine
 10
102.9414893617021
 20
87.75
 30
0.0
 11
103.6914893617021
 21
87.75
 31
0.0
  0
LINE
  5
110
330
1F
100
AcDbEntity
  8
CSLAYER1
 62
     7
100
AcDbLine
 10
103.6914893617021
 20
85.25
 30
0.0
 11
102.9414893617021
 21
85.25
 31
0.0
  0
LINE
  5
111
330
1F
100
AcDbEntity
  8
CSLAYER1
 62
     7
100
AcDbLine
 10
102.9414893617021
 20
82.75
 30
0.0
 11
103.6914893617021
 21
82.75
 31
0.0
  0
LINE
  5
112
330
1F
100
AcDbEntity
  8
CSLAYER1
 62
     7
100
AcDbLine
 10
102.9414893617021
 20
77.75
 30
0.0
 11
103.6914893617021
 21
77.75
 31
0.0
  0
LINE
  5
113
330
1F
100
AcDbEntity
  8
CSLAYER1
 62
     7
100
AcDbLine
 10
102.9414893617021
 20
75.25
 30
0.0
 11
103.6914893617021
 21
75.25
 31
0.0
  0
LINE
  5
114
330
1F
100
AcDbEntity
  8
CSLAYER1
 62
     7
100
AcDbLine
 10
103.6914893617021
 20
72.75
 30
0.0
 11
102.9414893617021
 21
72.75
 31
0.0
  0
LINE
  5
115
330
1F
100
AcDbEntity
  8
CSLAYER1
 62
     7
100
AcDbLine
 10
102.9414893617021
 20
70.25
 30
0.0
 11
103.6914893617021
 21
70.25
 31
0.0
  0
LINE
  5
116
330
1F
100
AcDbEntity
  8
CSLAYER1
 62
     7
100
AcDbLine
 10
102.9414893617021
 20
65.25
 30
0.0
 11
103.6914893617021
 21
65.25
 31
0.0
  0
LINE
  5
117
330
1F
100
AcDbEntity
  8
CSLAYER1
 62
     7
100
AcDbLine
 10
102.9414893617021
 20
62.75
 30
0.0
 11
103.6914893617021
 21
62.75
 31
0.0
  0
LINE
  5
118
330
1F
100
AcDbEntity
  8
CSLAYER1
 62
     7
100
AcDbLine
 10
103.6914893617021
 20
60.25
 30
0.0
 11
102.9414893617021
 21
60.25
 31
0.0
  0
LINE
  5
119
330
1F
100
AcDbEntity
  8
CSLAYER1
 62
     7
100
AcDbLine
 10
102.9414893617021
 20
57.75
 30
0.0
 11
103.6914893617021
 21
57.75
 31
0.0
  0
LINE
  5
11A
330
1F
100
AcDbEntity
  8
CSLAYER1
 62
     7
100
AcDbLine
 10
102.9414893617021
 20
52.75
 30
0.0
 11
103.6914893617021
 21
52.75
 31
0.0
  0
LINE
  5
11B
330
1F
100
AcDbEntity
  8
CSLAYER1
 62
     7
100
AcDbLine
 10
102.9414893617021
 20
50.25
 30
0.0
 11
103.6914893617021
 21
50.25
 31
0.0
  0
LINE
  5
11C
330
1F
100
AcDbEntity
  8
CSLAYER1
 62
     7
100
AcDbLine
 10
103.6914893617021
 20
47.75
 30
0.0
 11
102.9414893617021
 21
47.75
 31
0.0
  0
LINE
  5
11D
330
1F
100
AcDbEntity
  8
CSLAYER1
 62
     7
100
AcDbLine
 10
102.9414893617021
 20
45.25
 30
0.0
 11
103.6914893617021
 21
45.25
 31
0.0
  0
LINE
  5
11E
330
1F
100
AcDbEntity
  8
CSLAYER1
 62
     7
100
AcDbLine
 10
102.9414893617021
 20
40.25
 30
0.0
 11
103.6914893617021
 21
40.25
 31
0.0
  0
LINE
  5
11F
330
1F
100
AcDbEntity
  8
CSLAYER1
 62
     7
100
AcDbLine
 10
102.9414893617021
 20
37.75
 30
0.0
 11
103.6914893617021
 21
37.75
 31
0.0
  0
LINE
  5
120
330
1F
100
AcDbEntity
  8
CSLAYER1
 62
     7
100
AcDbLine
 10
103.6914893617021
 20
35.25
 30
0.0
 11
102.9414893617021
 21
35.25
 31
0.0
  0
LINE
  5
121
330
1F
100
AcDbEntity
  8
CSLAYER1
 62
     7
100
AcDbLine
 10
102.9414893617021
 20
32.75
 30
0.0
 11
103.6914893617021
 21
32.75
 31
0.0
  0
LINE
  5
122
330
1F
100
AcDbEntity
  8
CSLAYER1
 62
     7
100
AcDbLine
 10
102.9414893617021
 20
27.75
 30
0.0
 11
103.6914893617021
 21
27.75
 31
0.0
  0
LINE
  5
123
330
1F
100
AcDbEntity
  8
CSLAYER1
 62
     7
100
AcDbLine
 10
102.9414893617021
 20
25.25
 30
0.0
 11
103.6914893617021
 21
25.25
 31
0.0
  0
LINE
  5
124
330
1F
100
AcDbEntity
  8
CSLAYER1
 62
     7
100
AcDbLine
 10
103.6914893617021
 20
22.75
 30
0.0
 11
102.9414893617021
 21
22.75
 31
0.0
  0
LINE
  5
125
330
1F
100
AcDbEntity
  8
CSLAYER1
 62
     7
100
AcDbLine
 10
102.9414893617021
 20
20.25
 30
0.0
 11
103.6914893617021
 21
20.25
 31
0.0
  0
LINE
  5
126
330
1F
100
AcDbEntity
  8
CSLAYER1
 62
     7
100
AcDbLine
 10
102.9414893617021
 20
15.25
 30
0.0
 11
103.6914893617021
 21
15.25
 31
0.0
  0
LINE
  5
127
330
1F
100
AcDbEntity
  8
CSLAYER1
 62
     7
100
AcDbLine
 10
102.9414893617021
 20
12.75
 30
0.0
 11
103.6914893617021
 21
12.75
 31
0.0
  0
LINE
  5
128
330
1F
100
AcDbEntity
  8
CSLAYER1
 62
     7
100
AcDbLine
 10
103.6914893617021
 20
10.25
 30
0.0
 11
102.9414893617021
 21
10.25
 31
0.0
  0
LINE
  5
129
330
1F
100
AcDbEntity
  8
CSLAYER1
 62
     7
100
AcDbLine
 10
102.9414893617021
 20
7.75
 30
0.0
 11
103.6914893617021
 21
7.75
 31
0.0
  0
LINE
  5
12A
330
1F
100
AcDbEntity
  8
CSLAYER1
 62
     7
100
AcDbLine
 10
102.9414893617021
 20
140.25
 30
0.0
 11
103.6914893617021
 21
140.25
 31
0.0
  0
LINE
  5
12B
330
1F
100
AcDbEntity
  8
CSLAYER1
 62
     7
100
AcDbLine
 10
102.9414893617021
 20
137.75
 30
0.0
 11
103.6914893617021
 21
137.75
 31
0.0
  0
LINE
  5
12C
330
1F
100
AcDbEntity
  8
CSLAYER1
 62
     7
100
AcDbLine
 10
103.6914893617021
 20
135.25
 30
0.0
 11
102.9414893617021
 21
135.25
 31
0.0
  0
LINE
  5
12D
330
1F
100
AcDbEntity
  8
CSLAYER1
 62
     7
100
AcDbLine
 10
102.9414893617021
 20
132.75
 30
0.0
 11
103.6914893617021
 21
132.75
 31
0.0
  0
LINE
  5
12E
330
1F
100
AcDbEntity
  8
CSLAYER1
 62
     7
100
AcDbLine
 10
13.9414893617021
 20
130.25
 30
0.0
 11
15.4414893617021
 21
130.25
 31
0.0
  0
LINE
  5
12F
330
1F
100
AcDbEntity
  8
CSLAYER1
 62
     7
100
AcDbLine
 10
13.9414893617021
 20
117.75
 30
0.0
 11
15.4414893617021
 21
117.75
 31
0.0
  0
LINE
  5
130
330
1F
100
AcDbEntity
  8
CSLAYER1
 62
     7
100
AcDbLine
 10
13.94148936170208
 20
105.25
 30
0.0
 11
15.44148936170208
 21
105.25
 31
0.0
  0
LINE
  5
131
330
1F
100
AcDbEntity
  8
CSLAYER1
 62
     7
100
AcDbLine
 10
13.94148936170208
 20
92.75
 30
0.0
 11
15.44148936170208
 21
92.75
 31
0.0
  0
LINE
  5
132
330
1F
100
AcDbEntity
  8
CSLAYER1
 62
     7
100
AcDbLine
 10
13.94148936170208
 20
80.25
 30
0.0
 11
15.44148936170208
 21
80.25
 31
0.0
  0
LINE
  5
133
330
1F
100
AcDbEntity
  8
CSLAYER1
 62
     7
100
AcDbLine
 10
13.94148936170208
 20
67.75
 30
0.0
 11
15.44148936170208
 21
67.75
 31
0.0
  0
LINE
  5
134
330
1F
100
AcDbEntity
  8
CSLAYER1
 62
     7
100
AcDbLine
 10
13.94148936170208
 20
55.25000000000001
 30
0.0
 11
15.44148936170208
 21
55.25000000000001
 31
0.0
  0
LINE
  5
135
330
1F
100
AcDbEntity
  8
CSLAYER1
 62
     7
100
AcDbLine
 10
13.94148936170208
 20
42.75000000000001
 30
0.0
 11
15.44148936170208
 21
42.75000000000001
 31
0.0
  0
LINE
  5
136
330
1F
100
AcDbEntity
  8
CSLAYER1
 62
     7
100
AcDbLine
 10
13.94148936170208
 20
30.25000000000001
 30
0.0
 11
15.44148936170208
 21
30.25000000000001
 31
0.0
  0
LINE
  5
137
330
1F
100
AcDbEntity
  8
CSLAYER1
 62
     7
100
AcDbLine
 10
13.94148936170208
 20
17.75000000000001
 30
0.0
 11
15.44148936170208
 21
17.75000000000001
 31
0.0
  0
TEXT
  5
138
330
1F
100
AcDbEntity
  8
CSLAYER1
 62
     7
100
AcDbText
 10
14.65061296522617
 20
136.104248046875
 30
0.0
 40
1.0
  1
１
 41
0.2500000059604645
  7
FX_VECTOR
 72
     5
 11
14.82918439805508
 21
136.104248046875
 31
0.0
100
AcDbText
  0
TEXT
  5
139
330
1F
100
AcDbEntity
  8
CSLAYER1
 62
     7
100
AcDbText
 10
14.54346466064453
 20
123.5285186767578
 30
0.0
 40
1.0
  1
２
 41
0.7000000000000001
  7
FX_VECTOR
 72
     5
 11
15.04346466064453
 21
123.5285186767578
 31
0.0
100
AcDbText
  0
TEXT
  5
13A
330
1F
100
AcDbEntity
  8
CSLAYER1
 62
     7
100
AcDbText
 10
14.54346466064453
 20
111.0285186767578
 30
0.0
 40
1.0
  1
３
 41
0.7000000000000001
  7
FX_VECTOR
 72
     5
 11
15.04346466064453
 21
111.0285186767578
 31
0.0
100
AcDbText
  0
TEXT
  5
13B
330
1F
100
AcDbEntity
  8
CSLAYER1
 62
     7
100
AcDbText
 10
14.54346793889999
 20
98.52851867675781
 30
0.0
 40
1.0
  1
４
 41
0.7499999761581422
  7
FX_VECTOR
 72
     5
 11
15.07918220758438
 21
98.52851867675781
 31
0.0
100
AcDbText
  0
TEXT
  5
13C
330
1F
100
AcDbEntity
  8
CSLAYER1
 62
     7
100
AcDbText
 10
14.54346466064453
 20
86.02851867675781
 30
0.0
 40
1.0
  1
５
 41
0.7000000000000001
  7
FX_VECTOR
 72
     5
 11
15.04346466064453
 21
86.02851867675781
 31
0.0
100
AcDbText
  0
TEXT
  5
13D
330
1F
100
AcDbEntity
  8
CSLAYER1
 62
     7
100
AcDbText
 10
14.57918222248554
 20
73.52851867675781
 30
0.0
 40
1.0
  1
６
 41
0.6499999821186067
  7
FX_VECTOR
 72
     5
 11
15.04346792399883
 21
73.52851867675781
 31
0.0
100
AcDbText
  0
TEXT
  5
13E
330
1F
100
AcDbEntity
  8
CSLAYER1
 62
     7
100
AcDbText
 10
14.54346466064453
 20
61.02851867675781
 30
0.0
 40
1.0
  1
７
 41
0.7000000000000001
  7
FX_VECTOR
 72
     5
 11
15.04346466064453
 21
61.02851867675781
 31
0.0
100
AcDbText
  0
TEXT
  5
13F
330
1F
100
AcDbEntity
  8
CSLAYER1
 62
     7
100
AcDbText
 10
14.54346466064453
 20
48.52851867675781
 30
0.0
 40
1.0
  1
８
 41
0.7000000000000001
  7
FX_VECTOR
 72
     5
 11
15.04346466064453
 21
48.52851867675781
 31
0.0
100
AcDbText
  0
TEXT
  5
140
330
1F
100
AcDbEntity
  8
CSLAYER1
 62
     7
100
AcDbText
 10
14.54346902668476
 20
36.02851867675781
 30
0.0
 40
1.0
  1
９
 41
0.6499999821186067
  7
FX_VECTOR
 72
     5
 11
15.00775472819805
 21
36.02851867675781
 31
0.0
100
AcDbText
  0
TEXT
  5
141
330
1F
100
AcDbEntity
  8
CSLAYER1
 62
     7
100
AcDbText
 10
14.35775625705719
 20
23.52851867675781
 30
0.0
 40
1.0
  1
１０
 41
0.5636363679712469
  7
FX_VECTOR
 72
     5
 11
15.24347054958344
 21
23.52851867675781
 31
0.0
100
AcDbText
  0
TEXT
  5
142
330
1F
100
AcDbEntity
  8
CSLAYER1
 62
     7
100
AcDbText
 10
14.35775429010391
 20
11.27851867675781
 30
0.0
 40
1.0
  1
１１
 41
0.4545454653826628
  7
FX_VECTOR
 72
     5
 11
15.07204002141953
 21
11.27851867675781
 31
0.0
100
AcDbText
  0
LINE
  5
143
330
1F
100
AcDbEntity
  8
CSLAYER1
 62
     7
100
AcDbLine
 10
15.4414893617021
 20
127.75
 30
0.0
 11
14.6914893617021
 21
127.75
 31
0.0
  0
LINE
  5
144
330
1F
100
AcDbEntity
  8
CSLAYER1
 62
     7
100
AcDbLine
 10
15.4414893617021
 20
125.25
 30
0.0
 11
14.6914893617021
 21
125.25
 31
0.0
  0
LINE
  5
145
330
1F
100
AcDbEntity
  8
CSLAYER1
 62
     7
100
AcDbLine
 10
14.6914893617021
 20
122.75
 30
0.0
 11
15.4414893617021
 21
122.75
 31
0.0
  0
LINE
  5
146
330
1F
100
AcDbEntity
  8
CSLAYER1
 62
     7
100
AcDbLine
 10
15.4414893617021
 20
120.25
 30
0.0
 11
14.6914893617021
 21
120.25
 31
0.0
  0
LINE
  5
147
330
1F
100
AcDbEntity
  8
CSLAYER1
 62
     7
100
AcDbLine
 10
15.44148936170208
 20
115.25
 30
0.0
 11
14.69148936170208
 21
115.25
 31
0.0
  0
LINE
  5
148
330
1F
100
AcDbEntity
  8
CSLAYER1
 62
     7
100
AcDbLine
 10
15.44148936170208
 20
112.75
 30
0.0
 11
14.69148936170208
 21
112.75
 31
0.0
  0
LINE
  5
149
330
1F
100
AcDbEntity
  8
CSLAYER1
 62
     7
100
AcDbLine
 10
14.69148936170208
 20
110.25
 30
0.0
 11
15.44148936170208
 21
110.25
 31
0.0
  0
LINE
  5
14A
330
1F
100
AcDbEntity
  8
CSLAYER1
 62
     7
100
AcDbLine
 10
15.44148936170208
 20
107.75
 30
0.0
 11
14.69148936170208
 21
107.75
 31
0.0
  0
LINE
  5
14B
330
1F
100
AcDbEntity
  8
CSLAYER1
 62
     7
100
AcDbLine
 10
15.44148936170208
 20
102.75
 30
0.0
 11
14.69148936170208
 21
102.75
 31
0.0
  0
LINE
  5
14C
330
1F
100
AcDbEntity
  8
CSLAYER1
 62
     7
100
AcDbLine
 10
15.44148936170208
 20
100.25
 30
0.0
 11
14.69148936170208
 21
100.25
 31
0.0
  0
LINE
  5
14D
330
1F
100
AcDbEntity
  8
CSLAYER1
 62
     7
100
AcDbLine
 10
14.69148936170208
 20
97.75
 30
0.0
 11
15.44148936170208
 21
97.75
 31
0.0
  0
LINE
  5
14E
330
1F
100
AcDbEntity
  8
CSLAYER1
 62
     7
100
AcDbLine
 10
15.44148936170208
 20
95.25
 30
0.0
 11
14.69148936170208
 21
95.25
 31
0.0
  0
LINE
  5
14F
330
1F
100
AcDbEntity
  8
CSLAYER1
 62
     7
100
AcDbLine
 10
15.44148936170208
 20
90.25
 30
0.0
 11
14.69148936170208
 21
90.25
 31
0.0
  0
LINE
  5
150
330
1F
100
AcDbEntity
  8
CSLAYER1
 62
     7
100
AcDbLine
 10
15.44148936170208
 20
87.75
 30
0.0
 11
14.69148936170208
 21
87.75
 31
0.0
  0
LINE
  5
151
330
1F
100
AcDbEntity
  8
CSLAYER1
 62
     7
100
AcDbLine
 10
14.69148936170208
 20
85.25
 30
0.0
 11
15.44148936170208
 21
85.25
 31
0.0
  0
LINE
  5
152
330
1F
100
AcDbEntity
  8
CSLAYER1
 62
     7
100
AcDbLine
 10
15.44148936170208
 20
82.75
 30
0.0
 11
14.69148936170208
 21
82.75
 31
0.0
  0
LINE
  5
153
330
1F
100
AcDbEntity
  8
CSLAYER1
 62
     7
100
AcDbLine
 10
15.44148936170208
 20
77.75
 30
0.0
 11
14.69148936170208
 21
77.75
 31
0.0
  0
LINE
  5
154
330
1F
100
AcDbEntity
  8
CSLAYER1
 62
     7
100
AcDbLine
 10
15.44148936170208
 20
75.25
 30
0.0
 11
14.69148936170208
 21
75.25
 31
0.0
  0
LINE
  5
155
330
1F
100
AcDbEntity
  8
CSLAYER1
 62
     7
100
AcDbLine
 10
14.69148936170208
 20
72.75
 30
0.0
 11
15.44148936170208
 21
72.75
 31
0.0
  0
LINE
  5
156
330
1F
100
AcDbEntity
  8
CSLAYER1
 62
     7
100
AcDbLine
 10
15.44148936170208
 20
70.25
 30
0.0
 11
14.69148936170208
 21
70.25
 31
0.0
  0
LINE
  5
157
330
1F
100
AcDbEntity
  8
CSLAYER1
 62
     7
100
AcDbLine
 10
15.44148936170208
 20
65.25
 30
0.0
 11
14.69148936170208
 21
65.25
 31
0.0
  0
LINE
  5
158
330
1F
100
AcDbEntity
  8
CSLAYER1
 62
     7
100
AcDbLine
 10
15.44148936170208
 20
62.75000000000001
 30
0.0
 11
14.69148936170208
 21
62.75000000000001
 31
0.0
  0
LINE
  5
159
330
1F
100
AcDbEntity
  8
CSLAYER1
 62
     7
100
AcDbLine
 10
14.69148936170208
 20
60.25000000000001
 30
0.0
 11
15.44148936170208
 21
60.25000000000001
 31
0.0
  0
LINE
  5
15A
330
1F
100
AcDbEntity
  8
CSLAYER1
 62
     7
100
AcDbLine
 10
15.44148936170208
 20
57.75000000000001
 30
0.0
 11
14.69148936170208
 21
57.75000000000001
 31
0.0
  0
LINE
  5
15B
330
1F
100
AcDbEntity
  8
CSLAYER1
 62
     7
100
AcDbLine
 10
15.44148936170208
 20
52.75000000000001
 30
0.0
 11
14.69148936170208
 21
52.75000000000001
 31
0.0
  0
LINE
  5
15C
330
1F
100
AcDbEntity
  8
CSLAYER1
 62
     7
100
AcDbLine
 10
15.44148936170208
 20
50.25000000000001
 30
0.0
 11
14.69148936170208
 21
50.25000000000001
 31
0.0
  0
LINE
  5
15D
330
1F
100
AcDbEntity
  8
CSLAYER1
 62
     7
100
AcDbLine
 10
14.69148936170208
 20
47.75000000000001
 30
0.0
 11
15.44148936170208
 21
47.75000000000001
 31
0.0
  0
LINE
  5
15E
330
1F
100
AcDbEntity
  8
CSLAYER1
 62
     7
100
AcDbLine
 10
15.44148936170208
 20
45.25000000000001
 30
0.0
 11
14.69148936170208
 21
45.25000000000001
 31
0.0
  0
LINE
  5
15F
330
1F
100
AcDbEntity
  8
CSLAYER1
 62
     7
100
AcDbLine
 10
15.44148936170208
 20
40.25000000000001
 30
0.0
 11
14.69148936170208
 21
40.25000000000001
 31
0.0
  0
LINE
  5
160
330
1F
100
AcDbEntity
  8
CSLAYER1
 62
     7
100
AcDbLine
 10
15.44148936170208
 20
37.75000000000001
 30
0.0
 11
14.69148936170208
 21
37.75000000000001
 31
0.0
  0
LINE
  5
161
330
1F
100
AcDbEntity
  8
CSLAYER1
 62
     7
100
AcDbLine
 10
14.69148936170208
 20
35.25000000000001
 30
0.0
 11
15.44148936170208
 21
35.25000000000001
 31
0.0
  0
LINE
  5
162
330
1F
100
AcDbEntity
  8
CSLAYER1
 62
     7
100
AcDbLine
 10
15.44148936170208
 20
32.75000000000001
 30
0.0
 11
14.69148936170208
 21
32.75000000000001
 31
0.0
  0
LINE
  5
163
330
1F
100
AcDbEntity
  8
CSLAYER1
 62
     7
100
AcDbLine
 10
15.44148936170208
 20
27.75000000000001
 30
0.0
 11
14.69148936170208
 21
27.75000000000001
 31
0.0
  0
LINE
  5
164
330
1F
100
AcDbEntity
  8
CSLAYER1
 62
     7
100
AcDbLine
 10
15.44148936170208
 20
25.25000000000001
 30
0.0
 11
14.69148936170208
 21
25.25000000000001
 31
0.0
  0
LINE
  5
165
330
1F
100
AcDbEntity
  8
CSLAYER1
 62
     7
100
AcDbLine
 10
14.69148936170208
 20
22.75000000000001
 30
0.0
 11
15.44148936170208
 21
22.75000000000001
 31
0.0
  0
LINE
  5
166
330
1F
100
AcDbEntity
  8
CSLAYER1
 62
     7
100
AcDbLine
 10
15.44148936170208
 20
20.25000000000001
 30
0.0
 11
14.69148936170208
 21
20.25000000000001
 31
0.0
  0
LINE
  5
167
330
1F
100
AcDbEntity
  8
CSLAYER1
 62
     7
100
AcDbLine
 10
15.44148936170208
 20
15.25000000000001
 30
0.0
 11
14.69148936170208
 21
15.25000000000001
 31
0.0
  0
LINE
  5
168
330
1F
100
AcDbEntity
  8
CSLAYER1
 62
     7
100
AcDbLine
 10
15.44148936170208
 20
12.75000000000001
 30
0.0
 11
14.69148936170208
 21
12.75000000000001
 31
0.0
  0
LINE
  5
169
330
1F
100
AcDbEntity
  8
CSLAYER1
 62
     7
100
AcDbLine
 10
14.69148936170208
 20
10.25000000000001
 30
0.0
 11
15.44148936170208
 21
10.25000000000001
 31
0.0
  0
LINE
  5
16A
330
1F
100
AcDbEntity
  8
CSLAYER1
 62
     7
100
AcDbLine
 10
15.44148936170208
 20
7.750000000000005
 30
0.0
 11
14.69148936170208
 21
7.750000000000005
 31
0.0
  0
LINE
  5
16B
330
1F
100
AcDbEntity
  8
CSLAYER1
 62
     7
100
AcDbLine
 10
15.4414893617021
 20
140.25
 30
0.0
 11
14.6914893617021
 21
140.25
 31
0.0
  0
LINE
  5
16C
330
1F
100
AcDbEntity
  8
CSLAYER1
 62
     7
100
AcDbLine
 10
15.4414893617021
 20
137.75
 30
0.0
 11
14.6914893617021
 21
137.75
 31
0.0
  0
LINE
  5
16D
330
1F
100
AcDbEntity
  8
CSLAYER1
 62
     7
100
AcDbLine
 10
14.6914893617021
 20
135.25
 30
0.0
 11
15.4414893617021
 21
135.25
 31
0.0
  0
LINE
  5
16E
330
1F
100
AcDbEntity
  8
CSLAYER1
 62
     7
100
AcDbLine
 10
15.4414893617021
 20
132.75
 30
0.0
 11
14.6914893617021
 21
132.75
 31
0.0
  0
LINE
  5
16F
330
1F
100
AcDbEntity
  8
CSLAYER1
 62
     7
100
AcDbLine
 10
40.4414893617021
 20
142.25
 30
0.0
 11
40.4414893617021
 21
143.75
 31
0.0
  0
LINE
  5
170
330
1F
100
AcDbEntity
  8
CSLAYER1
 62
     7
100
AcDbLine
 10
52.94148936170209
 20
142.25
 30
0.0
 11
52.94148936170209
 21
143.75
 31
0.0
  0
LINE
  5
171
330
1F
100
AcDbEntity
  8
CSLAYER1
 62
     7
100
AcDbLine
 10
65.44148936170208
 20
142.25
 30
0.0
 11
65.44148936170208
 21
143.75
 31
0.0
  0
LINE
  5
172
330
1F
100
AcDbEntity
  8
CSLAYER1
 62
     7
100
AcDbLine
 10
77.94148936170208
 20
142.25
 30
0.0
 11
77.94148936170208
 21
143.75
 31
0.0
  0
LINE
  5
173
330
1F
100
AcDbEntity
  8
CSLAYER1
 62
     7
100
AcDbLine
 10
90.44148936170208
 20
142.25
 30
0.0
 11
90.44148936170208
 21
143.75
 31
0.0
  0
TEXT
  5
174
330
1F
100
AcDbEntity
  8
CSLAYER1
 62
     7
100
AcDbText
 10
34.03619384765625
 20
142.4656219482422
 30
0.0
 40
1.0
  1
Ｂ
 41
0.7000000000000001
  7
FX_VECTOR
 72
     5
 11
34.53619384765625
 21
142.4656219482422
 31
0.0
100
AcDbText
  0
TEXT
  5
175
330
1F
100
AcDbEntity
  8
CSLAYER1
 62
     7
100
AcDbText
 10
46.5004763007164
 20
142.4656219482422
 30
0.0
 40
1.0
  1
Ｃ
 41
0.7499999761581422
  7
FX_VECTOR
 72
     5
 11
47.03619056940079
 21
142.4656219482422
 31
0.0
100
AcDbText
  0
TEXT
  5
176
330
1F
100
AcDbEntity
  8
CSLAYER1
 62
     7
100
AcDbText
 10
59.03619003295898
 20
142.4656219482422
 30
0.0
 40
1.0
  1
Ｄ
 41
0.7000000000000001
  7
FX_VECTOR
 72
     5
 11
59.53619003295898
 21
142.4656219482422
 31
0.0
100
AcDbText
  0
TEXT
  5
177
330
1F
100
AcDbEntity
  8
CSLAYER1
 62
     7
100
AcDbText
 10
71.53619058430195
 20
142.4656219482422
 30
0.0
 40
1.0
  1
Ｅ
 41
0.6499999821186067
  7
FX_VECTOR
 72
     5
 11
72.00047628581524
 21
142.4656219482422
 31
0.0
100
AcDbText
  0
TEXT
  5
178
330
1F
100
AcDbEntity
  8
CSLAYER1
 62
     7
100
AcDbText
 10
84.03618295490742
 20
142.4656219482422
 30
0.0
 40
1.0
  1
Ｆ
 41
0.6499999821186067
  7
FX_VECTOR
 72
     5
 11
84.50046865642071
 21
142.4656219482422
 31
0.0
100
AcDbText
  0
TEXT
  5
179
330
1F
100
AcDbEntity
  8
CSLAYER1
 62
     7
100
AcDbText
 10
96.50046867132187
 20
142.4656219482422
 30
0.0
 40
1.0
  1
Ｇ
 41
0.7499999761581422
  7
FX_VECTOR
 72
     5
 11
97.03618294000626
 21
142.4656219482422
 31
0.0
100
AcDbText
  0
LINE
  5
17A
330
1F
100
AcDbEntity
  8
CSLAYER1
 62
     7
100
AcDbLine
 10
37.9414893617021
 20
142.25
 30
0.0
 11
37.9414893617021
 21
143.0
 31
0.0
  0
LINE
  5
17B
330
1F
100
AcDbEntity
  8
CSLAYER1
 62
     7
100
AcDbLine
 10
35.4414893617021
 20
142.25
 30
0.0
 11
35.4414893617021
 21
143.0
 31
0.0
  0
LINE
  5
17C
330
1F
100
AcDbEntity
  8
CSLAYER1
 62
     7
100
AcDbLine
 10
32.9414893617021
 20
142.25
 30
0.0
 11
32.9414893617021
 21
143.0
 31
0.0
  0
LINE
  5
17D
330
1F
100
AcDbEntity
  8
CSLAYER1
 62
     7
100
AcDbLine
 10
30.4414893617021
 20
143.0
 30
0.0
 11
30.4414893617021
 21
142.25
 31
0.0
  0
LINE
  5
17E
330
1F
100
AcDbEntity
  8
CSLAYER1
 62
     7
100
AcDbLine
 10
50.44148936170209
 20
142.25
 30
0.0
 11
50.44148936170209
 21
143.0
 31
0.0
  0
LINE
  5
17F
330
1F
100
AcDbEntity
  8
CSLAYER1
 62
     7
100
AcDbLine
 10
47.94148936170209
 20
142.25
 30
0.0
 11
47.94148936170209
 21
143.0
 31
0.0
  0
LINE
  5
180
330
1F
100
AcDbEntity
  8
CSLAYER1
 62
     7
100
AcDbLine
 10
45.44148936170209
 20
142.25
 30
0.0
 11
45.44148936170209
 21
143.0
 31
0.0
  0
LINE
  5
181
330
1F
100
AcDbEntity
  8
CSLAYER1
 62
     7
100
AcDbLine
 10
42.9414893617021
 20
143.0
 30
0.0
 11
42.9414893617021
 21
142.25
 31
0.0
  0
LINE
  5
182
330
1F
100
AcDbEntity
  8
CSLAYER1
 62
     7
100
AcDbLine
 10
62.94148936170209
 20
142.25
 30
0.0
 11
62.94148936170209
 21
143.0
 31
0.0
  0
LINE
  5
183
330
1F
100
AcDbEntity
  8
CSLAYER1
 62
     7
100
AcDbLine
 10
60.44148936170209
 20
142.25
 30
0.0
 11
60.44148936170209
 21
143.0
 31
0.0
  0
LINE
  5
184
330
1F
100
AcDbEntity
  8
CSLAYER1
 62
     7
100
AcDbLine
 10
57.94148936170209
 20
142.25
 30
0.0
 11
57.94148936170209
 21
143.0
 31
0.0
  0
LINE
  5
185
330
1F
100
AcDbEntity
  8
CSLAYER1
 62
     7
100
AcDbLine
 10
55.44148936170209
 20
143.0
 30
0.0
 11
55.44148936170209
 21
142.25
 31
0.0
  0
LINE
  5
186
330
1F
100
AcDbEntity
  8
CSLAYER1
 62
     7
100
AcDbLine
 10
75.44148936170208
 20
142.25
 30
0.0
 11
75.44148936170208
 21
143.0
 31
0.0
  0
LINE
  5
187
330
1F
100
AcDbEntity
  8
CSLAYER1
 62
     7
100
AcDbLine
 10
72.94148936170208
 20
142.25
 30
0.0
 11
72.94148936170208
 21
143.0
 31
0.0
  0
LINE
  5
188
330
1F
100
AcDbEntity
  8
CSLAYER1
 62
     7
100
AcDbLine
 10
70.44148936170208
 20
142.25
 30
0.0
 11
70.44148936170208
 21
143.0
 31
0.0
  0
LINE
  5
189
330
1F
100
AcDbEntity
  8
CSLAYER1
 62
     7
100
AcDbLine
 10
67.94148936170208
 20
143.0
 30
0.0
 11
67.94148936170208
 21
142.25
 31
0.0
  0
LINE
  5
18A
330
1F
100
AcDbEntity
  8
CSLAYER1
 62
     7
100
AcDbLine
 10
87.94148936170208
 20
142.25
 30
0.0
 11
87.94148936170208
 21
143.0
 31
0.0
  0
LINE
  5
18B
330
1F
100
AcDbEntity
  8
CSLAYER1
 62
     7
100
AcDbLine
 10
85.44148936170208
 20
142.25
 30
0.0
 11
85.44148936170208
 21
143.0
 31
0.0
  0
LINE
  5
18C
330
1F
100
AcDbEntity
  8
CSLAYER1
 62
     7
100
AcDbLine
 10
82.94148936170208
 20
142.25
 30
0.0
 11
82.94148936170208
 21
143.0
 31
0.0
  0
LINE
  5
18D
330
1F
100
AcDbEntity
  8
CSLAYER1
 62
     7
100
AcDbLine
 10
80.44148936170208
 20
143.0
 30
0.0
 11
80.44148936170208
 21
142.25
 31
0.0
  0
LINE
  5
18E
330
1F
100
AcDbEntity
  8
CSLAYER1
 62
     7
100
AcDbLine
 10
100.4414893617021
 20
142.25
 30
0.0
 11
100.4414893617021
 21
143.0
 31
0.0
  0
LINE
  5
18F
330
1F
100
AcDbEntity
  8
CSLAYER1
 62
     7
100
AcDbLine
 10
97.9414893617021
 20
142.25
 30
0.0
 11
97.9414893617021
 21
143.0
 31
0.0
  0
LINE
  5
190
330
1F
100
AcDbEntity
  8
CSLAYER1
 62
     7
100
AcDbLine
 10
95.4414893617021
 20
142.25
 30
0.0
 11
95.4414893617021
 21
143.0
 31
0.0
  0
LINE
  5
191
330
1F
100
AcDbEntity
  8
CSLAYER1
 62
     7
100
AcDbLine
 10
92.9414893617021
 20
143.0
 30
0.0
 11
92.9414893617021
 21
142.25
 31
0.0
  0
LINE
  5
192
330
1F
100
AcDbEntity
  8
CSLAYER1
 62
     7
100
AcDbLine
 10
27.9414893617021
 20
142.25
 30
0.0
 11
27.9414893617021
 21
143.75
 31
0.0
  0
LINE
  5
193
330
1F
100
AcDbEntity
  8
CSLAYER1
 62
     7
100
AcDbLine
 10
17.9414893617021
 20
143.0
 30
0.0
 11
17.9414893617021
 21
142.25
 31
0.0
  0
TEXT
  5
194
330
1F
100
AcDbEntity
  8
CSLAYER1
 62
     7
100
AcDbText
 10
21.42904552817345
 20
142.4656219482422
 30
0.0
 40
1.0
  1
Ａ
 41
0.800000035762787
  7
FX_VECTOR
 72
     5
 11
22.00047412514687
 21
142.4656219482422
 31
0.0
100
AcDbText
  0
LINE
  5
195
330
1F
100
AcDbEntity
  8
CSLAYER1
 62
     7
100
AcDbLine
 10
25.4414893617021
 20
142.25
 30
0.0
 11
25.4414893617021
 21
143.0
 31
0.0
  0
LINE
  5
196
330
1F
100
AcDbEntity
  8
CSLAYER1
 62
     7
100
AcDbLine
 10
22.9414893617021
 20
142.25
 30
0.0
 11
22.9414893617021
 21
143.0
 31
0.0
  0
LINE
  5
197
330
1F
100
AcDbEntity
  8
CSLAYER1
 62
     7
100
AcDbLine
 10
20.4414893617021
 20
142.25
 30
0.0
 11
20.4414893617021
 21
143.0
 31
0.0
  0
LINE
  5
198
330
1F
100
AcDbEntity
  8
CSLAYER1
 62
     7
100
AcDbLine
 10
40.44148936170208
 20
6.250000000000004
 30
0.0
 11
40.44148936170208
 21
4.750000000000004
 31
0.0
  0
LINE
  5
199
330
1F
100
AcDbEntity
  8
CSLAYER1
 62
     7
100
AcDbLine
 10
52.94148936170208
 20
6.250000000000004
 30
0.0
 11
52.94148936170208
 21
4.750000000000004
 31
0.0
  0
LINE
  5
19A
330
1F
100
AcDbEntity
  8
CSLAYER1
 62
     7
100
AcDbLine
 10
27.94148936170208
 20
6.250000000000005
 30
0.0
 11
27.94148936170208
 21
4.750000000000005
 31
0.0
  0
TEXT
  5
19B
330
1F
100
AcDbEntity
  8
CSLAYER1
 62
     7
100
AcDbText
 10
21.43244823813438
 20
4.998717784881592
 30
0.0
 40
1.0
  1
Ａ
 41
0.800000035762787
  7
FX_VECTOR
 72
     5
 11
22.0038768351078
 21
4.998717784881592
 31
0.0
100
AcDbText
  0
TEXT
  5
19C
330
1F
100
AcDbEntity
  8
CSLAYER1
 62
     7
100
AcDbText
 10
34.03619384765625
 20
4.965613842010498
 30
0.0
 40
1.0
  1
Ｂ
 41
0.7000000000000001
  7
FX_VECTOR
 72
     5
 11
34.53619384765625
 21
4.965613842010498
 31
0.0
100
AcDbText
  0
TEXT
  5
19D
330
1F
100
AcDbEntity
  8
CSLAYER1
 62
     7
100
AcDbText
 10
46.5004763007164
 20
4.965613842010498
 30
0.0
 40
1.0
  1
Ｃ
 41
0.7499999761581422
  7
FX_VECTOR
 72
     5
 11
47.03619056940079
 21
4.965613842010498
 31
0.0
100
AcDbText
  0
TEXT
  5
19E
330
1F
100
AcDbEntity
  8
CSLAYER1
 62
     7
100
AcDbText
 10
59.03619003295898
 20
4.965613842010498
 30
0.0
 40
1.0
  1
Ｄ
 41
0.7000000000000001
  7
FX_VECTOR
 72
     5
 11
59.53619003295898
 21
4.965613842010498
 31
0.0
100
AcDbText
  0
TEXT
  5
19F
330
1F
100
AcDbEntity
  8
CSLAYER1
 62
     7
100
AcDbText
 10
84.03618295490742
 20
4.965613842010498
 30
0.0
 40
1.0
  1
Ｆ
 41
0.6499999821186067
  7
FX_VECTOR
 72
     5
 11
84.50046865642071
 21
4.965613842010498
 31
0.0
100
AcDbText
  0
TEXT
  5
1A0
330
1F
100
AcDbEntity
  8
CSLAYER1
 62
     7
100
AcDbText
 10
96.50046867132187
 20
4.965613842010498
 30
0.0
 40
1.0
  1
Ｇ
 41
0.7499999761581422
  7
FX_VECTOR
 72
     5
 11
97.03618294000626
 21
4.965613842010498
 31
0.0
100
AcDbText
  0
LINE
  5
1A1
330
1F
100
AcDbEntity
  8
CSLAYER1
 62
     7
100
AcDbLine
 10
65.44148936170208
 20
4.750000000000003
 30
0.0
 11
65.44148936170208
 21
6.250000000000003
 31
0.0
  0
LINE
  5
1A2
330
1F
100
AcDbEntity
  8
CSLAYER1
 62
     7
100
AcDbLine
 10
77.94148936170208
 20
4.750000000000002
 30
0.0
 11
77.94148936170208
 21
6.250000000000002
 31
0.0
  0
LINE
  5
1A3
330
1F
100
AcDbEntity
  8
CSLAYER1
 62
     7
100
AcDbLine
 10
90.44148936170208
 20
4.750000000000001
 30
0.0
 11
90.44148936170208
 21
6.250000000000001
 31
0.0
  0
TEXT
  5
1A4
330
1F
100
AcDbEntity
  8
CSLAYER1
 62
     7
100
AcDbText
 10
71.53619058430195
 20
4.965613842010498
 30
0.0
 40
1.0
  1
Ｅ
 41
0.6499999821186067
  7
FX_VECTOR
 72
     5
 11
72.00047628581524
 21
4.965613842010498
 31
0.0
100
AcDbText
  0
LINE
  5
1A5
330
1F
100
AcDbEntity
  8
CSLAYER1
 62
     7
100
AcDbLine
 10
37.94148936170208
 20
6.250000000000004
 30
0.0
 11
37.94148936170208
 21
5.500000000000004
 31
0.0
  0
LINE
  5
1A6
330
1F
100
AcDbEntity
  8
CSLAYER1
 62
     7
100
AcDbLine
 10
35.44148936170208
 20
6.250000000000004
 30
0.0
 11
35.44148936170208
 21
5.500000000000004
 31
0.0
  0
LINE
  5
1A7
330
1F
100
AcDbEntity
  8
CSLAYER1
 62
     7
100
AcDbLine
 10
32.94148936170208
 20
6.250000000000004
 30
0.0
 11
32.94148936170208
 21
5.500000000000004
 31
0.0
  0
LINE
  5
1A8
330
1F
100
AcDbEntity
  8
CSLAYER1
 62
     7
100
AcDbLine
 10
30.44148936170208
 20
5.500000000000004
 30
0.0
 11
30.44148936170208
 21
6.250000000000004
 31
0.0
  0
LINE
  5
1A9
330
1F
100
AcDbEntity
  8
CSLAYER1
 62
     7
100
AcDbLine
 10
50.44148936170208
 20
6.250000000000004
 30
0.0
 11
50.44148936170208
 21
5.500000000000004
 31
0.0
  0
LINE
  5
1AA
330
1F
100
AcDbEntity
  8
CSLAYER1
 62
     7
100
AcDbLine
 10
47.94148936170208
 20
6.250000000000004
 30
0.0
 11
47.94148936170208
 21
5.500000000000004
 31
0.0
  0
LINE
  5
1AB
330
1F
100
AcDbEntity
  8
CSLAYER1
 62
     7
100
AcDbLine
 10
45.44148936170208
 20
6.250000000000004
 30
0.0
 11
45.44148936170208
 21
5.500000000000004
 31
0.0
  0
LINE
  5
1AC
330
1F
100
AcDbEntity
  8
CSLAYER1
 62
     7
100
AcDbLine
 10
42.94148936170208
 20
5.500000000000004
 30
0.0
 11
42.94148936170208
 21
6.250000000000004
 31
0.0
  0
LINE
  5
1AD
330
1F
100
AcDbEntity
  8
CSLAYER1
 62
     7
100
AcDbLine
 10
62.94148936170208
 20
6.250000000000003
 30
0.0
 11
62.94148936170208
 21
5.500000000000003
 31
0.0
  0
LINE
  5
1AE
330
1F
100
AcDbEntity
  8
CSLAYER1
 62
     7
100
AcDbLine
 10
60.44148936170208
 20
6.250000000000003
 30
0.0
 11
60.44148936170208
 21
5.500000000000003
 31
0.0
  0
LINE
  5
1AF
330
1F
100
AcDbEntity
  8
CSLAYER1
 62
     7
100
AcDbLine
 10
57.94148936170208
 20
6.250000000000004
 30
0.0
 11
57.94148936170208
 21
5.500000000000004
 31
0.0
  0
LINE
  5
1B0
330
1F
100
AcDbEntity
  8
CSLAYER1
 62
     7
100
AcDbLine
 10
55.44148936170208
 20
5.500000000000004
 30
0.0
 11
55.44148936170208
 21
6.250000000000004
 31
0.0
  0
LINE
  5
1B1
330
1F
100
AcDbEntity
  8
CSLAYER1
 62
     7
100
AcDbLine
 10
75.44148936170208
 20
6.250000000000002
 30
0.0
 11
75.44148936170208
 21
5.500000000000002
 31
0.0
  0
LINE
  5
1B2
330
1F
100
AcDbEntity
  8
CSLAYER1
 62
     7
100
AcDbLine
 10
72.94148936170208
 20
6.250000000000002
 30
0.0
 11
72.94148936170208
 21
5.500000000000002
 31
0.0
  0
LINE
  5
1B3
330
1F
100
AcDbEntity
  8
CSLAYER1
 62
     7
100
AcDbLine
 10
70.44148936170208
 20
6.250000000000003
 30
0.0
 11
70.44148936170208
 21
5.500000000000003
 31
0.0
  0
LINE
  5
1B4
330
1F
100
AcDbEntity
  8
CSLAYER1
 62
     7
100
AcDbLine
 10
67.94148936170208
 20
5.500000000000003
 30
0.0
 11
67.94148936170208
 21
6.250000000000003
 31
0.0
  0
LINE
  5
1B5
330
1F
100
AcDbEntity
  8
CSLAYER1
 62
     7
100
AcDbLine
 10
87.94148936170208
 20
6.250000000000001
 30
0.0
 11
87.94148936170208
 21
5.500000000000001
 31
0.0
  0
LINE
  5
1B6
330
1F
100
AcDbEntity
  8
CSLAYER1
 62
     7
100
AcDbLine
 10
85.44148936170208
 20
6.250000000000002
 30
0.0
 11
85.44148936170208
 21
5.500000000000002
 31
0.0
  0
LINE
  5
1B7
330
1F
100
AcDbEntity
  8
CSLAYER1
 62
     7
100
AcDbLine
 10
82.94148936170208
 20
6.250000000000002
 30
0.0
 11
82.94148936170208
 21
5.500000000000002
 31
0.0
  0
LINE
  5
1B8
330
1F
100
AcDbEntity
  8
CSLAYER1
 62
     7
100
AcDbLine
 10
80.44148936170208
 20
5.500000000000002
 30
0.0
 11
80.44148936170208
 21
6.250000000000002
 31
0.0
  0
LINE
  5
1B9
330
1F
100
AcDbEntity
  8
CSLAYER1
 62
     7
100
AcDbLine
 10
100.4414893617021
 20
6.250000000000001
 30
0.0
 11
100.4414893617021
 21
5.500000000000001
 31
0.0
  0
LINE
  5
1BA
330
1F
100
AcDbEntity
  8
CSLAYER1
 62
     7
100
AcDbLine
 10
97.94148936170208
 20
6.250000000000001
 30
0.0
 11
97.94148936170208
 21
5.500000000000001
 31
0.0
  0
LINE
  5
1BB
330
1F
100
AcDbEntity
  8
CSLAYER1
 62
     7
100
AcDbLine
 10
95.44148936170208
 20
6.250000000000001
 30
0.0
 11
95.44148936170208
 21
5.500000000000001
 31
0.0
  0
LINE
  5
1BC
330
1F
100
AcDbEntity
  8
CSLAYER1
 62
     7
100
AcDbLine
 10
92.94148936170208
 20
5.500000000000001
 30
0.0
 11
92.94148936170208
 21
6.250000000000001
 31
0.0
  0
LINE
  5
1BD
330
1F
100
AcDbEntity
  8
CSLAYER1
 62
     7
100
AcDbLine
 10
25.44148936170208
 20
6.250000000000005
 30
0.0
 11
25.44148936170208
 21
5.500000000000005
 31
0.0
  0
LINE
  5
1BE
330
1F
100
AcDbEntity
  8
CSLAYER1
 62
     7
100
AcDbLine
 10
22.94148936170208
 20
6.250000000000005
 30
0.0
 11
22.94148936170208
 21
5.500000000000005
 31
0.0
  0
LINE
  5
1BF
330
1F
100
AcDbEntity
  8
CSLAYER1
 62
     7
100
AcDbLine
 10
20.44148936170208
 20
6.250000000000005
 30
0.0
 11
20.44148936170208
 21
5.500000000000005
 31
0.0
  0
LINE
  5
1C0
330
1F
100
AcDbEntity
  8
CSLAYER1
 62
     7
100
AcDbLine
 10
17.94148936170208
 20
5.500000000000005
 30
0.0
 11
17.94148936170208
 21
6.250000000000005
 31
0.0
  0
LINE
  5
1C1
330
1F
100
AcDbEntity
  8
CSLAYER1
 62
     7
100
AcDbLine
 10
65.94148936170208
 20
6.250000000000003
 30
0.0
 11
65.94148936170208
 21
34.25
 31
0.0
  0
LINE
  5
1C2
330
1F
100
AcDbEntity
  8
CSLAYER1
 62
     7
100
AcDbLine
 10
65.94148936170208
 20
10.25
 30
0.0
 11
102.9414893617021
 21
10.25
 31
0.0
  0
LINE
  5
1C3
330
1F
100
AcDbEntity
  8
CSLAYER1
 62
     7
100
AcDbLine
 10
30.44148936170208
 20
20.25
 30
0.0
 11
30.44148936170208
 21
6.250000000000004
 31
0.0
  0
LINE
  5
1C4
330
1F
100
AcDbEntity
  8
CSLAYER1
 62
     7
100
AcDbLine
 10
15.44148936170208
 20
20.25000000000001
 30
0.0
 11
65.94148936170208
 21
20.25
 31
0.0
  0
LINE
  5
1C5
330
1F
100
AcDbEntity
  8
CSLAYER1
 62
     7
100
AcDbLine
 10
30.44148936170208
 20
14.00000000000001
 30
0.0
 11
45.44148936170208
 21
14.0
 31
0.0
  0
LINE
  5
1C6
330
1F
100
AcDbEntity
  8
CSLAYER1
 62
     7
100
AcDbLine
 10
18.44148936170208
 20
6.250000000000005
 30
0.0
 11
19.44148936170208
 21
6.250000000000005
 31
0.0
  0
LINE
  5
1C7
330
1F
100
AcDbEntity
  8
CSLAYER1
 62
     7
100
AcDbLine
 10
15.44148936170208
 20
23.75000000000001
 30
0.0
 11
65.94148936170208
 21
23.75
 31
0.0
  0
LINE
  5
1C8
330
1F
100
AcDbEntity
  8
CSLAYER1
 62
     7
100
AcDbLine
 10
30.44148936170208
 20
9.750000000000005
 30
0.0
 11
45.44148936170208
 21
9.750000000000004
 31
0.0
  0
LINE
  5
1C9
330
1F
100
AcDbEntity
  8
CSLAYER1
 62
     7
100
AcDbLine
 10
15.44148936170208
 20
27.25000000000001
 30
0.0
 11
65.94148936170208
 21
27.25
 31
0.0
  0
LINE
  5
1CA
330
1F
100
AcDbEntity
  8
CSLAYER1
 62
     7
100
AcDbLine
 10
15.44148936170208
 20
30.75000000000001
 30
0.0
 11
65.94148936170208
 21
30.75
 31
0.0
  0
LINE
  5
1CB
330
1F
100
AcDbEntity
  8
CSLAYER1
 62
     7
100
AcDbLine
 10
15.44148936170208
 20
34.25000000000001
 30
0.0
 11
102.9414893617021
 21
34.25
 31
0.0
  0
LINE
  5
1CC
330
1F
100
AcDbEntity
  8
CSLAYER1
 62
     7
100
AcDbLine
 10
58.44148936170208
 20
20.25
 30
0.0
 11
58.44148936170208
 21
34.25
 31
0.0
  0
LINE
  5
1CD
330
1F
100
AcDbEntity
  8
CSLAYER1
 62
     7
100
AcDbLine
 10
27.94148936170208
 20
34.25000000000001
 30
0.0
 11
15.44148936170208
 21
34.25000000000001
 31
0.0
  0
LINE
  5
1CE
330
1F
100
AcDbEntity
  8
CSLAYER1
 62
     7
100
AcDbLine
 10
27.94148936170208
 20
20.25
 30
0.0
 11
27.94148936170208
 21
34.25000000000001
 31
0.0
  0
TEXT
  5
1CF
330
1F
100
AcDbEntity
  8
CSLAYER1
 62
     7
100
AcDbText
 10
16.2501285970211
 20
20.75
 30
0.0
 40
1.25
  1
ＳＹＭ
 41
0.9705882437088911
  7
FX_VECTOR
 72
     5
 11
19.19655719399452
 21
20.75
 31
0.0
100
AcDbText
  0
TEXT
  5
1D0
330
1F
100
AcDbEntity
  8
CSLAYER1
 62
     7
100
AcDbText
 10
16.78518348932266
 20
22.27668762207031
 30
0.0
 40
1.25
  1
記号
 41
0.8727272813970393
  7
FX_VECTOR
 72
     5
 11
18.49946922063828
 21
22.27668762207031
 31
0.0
100
AcDbText
  0
LINE
  5
1D1
330
1F
100
AcDbEntity
  8
CSLAYER1
 62
     7
100
AcDbLine
 10
65.94148936170208
 20
14.25
 30
0.0
 11
102.9414893617021
 21
14.25
 31
0.0
  0
LINE
  5
1D2
330
1F
100
AcDbEntity
  8
CSLAYER1
 62
     7
100
AcDbLine
 10
15.44148936170208
 20
10.91666700000001
 30
0.0
 11
30.44148936170208
 21
10.91666700000001
 31
0.0
  0
LINE
  5
1D3
330
1F
100
AcDbEntity
  8
CSLAYER1
 62
     7
100
AcDbLine
 10
15.44148936170208
 20
15.58333500000001
 30
0.0
 11
30.44148936170208
 21
15.58333500000001
 31
0.0
  0
TEXT
  5
1D4
330
1F
100
AcDbEntity
  8
CSLAYER1
 62
     7
100
AcDbText
 10
21.31940317153931
 20
22.19809722900391
 30
0.0
 40
1.25
  1
日　　付
 41
0.8727270043414571
  7
FX_VECTOR
 72
     5
 11
24.90381765365601
 21
22.19809722900391
 31
0.0
100
AcDbText
  0
TEXT
  5
1D5
330
1F
100
AcDbEntity
  8
CSLAYER1
 62
     7
100
AcDbText
 10
21.37134766578674
 20
20.67140960693359
 30
0.0
 40
1.25
  1
ＤＡＴＥ
 41
0.8600787784742271
  7
FX_VECTOR
 72
     5
 11
24.90381407737732
 21
20.67140960693359
 31
0.0
100
AcDbText
  0
TEXT
  5
1D6
330
1F
100
AcDbEntity
  8
CSLAYER1
 62
     7
100
AcDbText
 10
42.46918106079102
 20
22.27668762207031
 30
0.0
 40
1.25
  1
改　　　　　　訂
 41
0.9235896983045213
  7
FX_VECTOR
 72
     5
 11
50.22073745727539
 21
22.27668762207031
 31
0.0
100
AcDbText
  0
TEXT
  5
1D7
330
1F
100
AcDbEntity
  8
CSLAYER1
 62
     7
100
AcDbText
 10
42.51887249946594
 20
20.75
 30
0.0
 40
1.25
  1
ＲＥＶＩＳＩＯＮ
 41
0.7696581008586478
  7
FX_VECTOR
 72
     5
 11
48.97850298881531
 21
20.75
 31
0.0
100
AcDbText
  0
TEXT
  5
1D8
330
1F
100
AcDbEntity
  8
CSLAYER1
 62
     7
100
AcDbText
 10
59.34274387359619
 20
22.27668762207031
 30
0.0
 40
1.25
  1
承　　　　認
 41
0.8712606811523438
  7
FX_VECTOR
 72
     5
 11
64.78812313079834
 21
22.27668762207031
 31
0.0
100
AcDbText
  0
TEXT
  5
1D9
330
1F
100
AcDbEntity
  8
CSLAYER1
 62
     7
100
AcDbText
 10
59.22875070571899
 20
20.75
 30
0.0
 40
1.25
  1
ＡＰＰＲＯＶＥＤ
 41
0.6971323378542637
  7
FX_VECTOR
 72
     5
 11
65.07968282699585
 21
20.75
 31
0.0
100
AcDbText
  0
TEXT
  5
1DA
330
1F
100
AcDbEntity
  8
CSLAYER1
 62
     7
100
AcDbText
 10
31.10265207290649
 20
12.48579406738281
 30
0.0
 40
1.25
  1
尺　　度
 41
0.8727270043414571
  7
FX_VECTOR
 72
     5
 11
34.68706655502319
 21
12.48579406738281
 31
0.0
100
AcDbText
  0
TEXT
  5
1DB
330
1F
100
AcDbEntity
  8
CSLAYER1
 62
     7
100
AcDbText
 10
31.15147468447685
 20
10.86231994628906
 30
0.0
 40
1.25
  1
ＳＣＡＬＥ
 41
0.6650244860813536
  7
FX_VECTOR
 72
     5
 11
34.59535148739815
 21
10.86231994628906
 31
0.0
100
AcDbText
  0
TEXT
  5
1DC
330
1F
100
AcDbEntity
  8
CSLAYER1
 62
     7
100
AcDbText
 10
39.06150490045547
 20
10.15489959716797
 30
0.0
 40
3.0
  1
／
 41
0.800000007947286
  7
FX_VECTOR
 72
     5
 11
40.77579063177109
 21
10.15489959716797
 31
0.0
100
AcDbText
  0
TEXT
  5
1DD
330
1F
100
AcDbEntity
  8
CSLAYER1
 62
     7
100
AcDbText
 10
31.22983729839325
 20
17.06163787841797
 30
0.0
 40
1.25
  1
ＤＡＴＥ　ＯＦ　ＤＷＧ．
 41
0.6490142150663994
  7
FX_VECTOR
 72
     5
 11
39.45841038227081
 21
17.06163787841797
 31
0.0
100
AcDbText
  0
TEXT
  5
1DE
330
1F
100
AcDbEntity
  8
CSLAYER1
 62
     7
100
AcDbText
 10
31.13714894652367
 20
18.58804321289062
 30
0.0
 40
1.25
  1
作　成　日
 41
0.8275863302165064
  7
FX_VECTOR
 72
     5
 11
35.42286387085915
 21
18.58804321289062
 31
0.0
100
AcDbText
  0
TEXT
  5
1DF
330
1F
100
AcDbEntity
  8
CSLAYER1
 62
     7
100
AcDbText
 10
31.50377666950226
 20
7.798598766326904
 30
0.0
 40
1.25
  1
ＵＮＩＴ
 41
0.597628062704335
  7
FX_VECTOR
 72
     5
 11
33.95832049846649
 21
7.798598766326904
 31
0.0
100
AcDbText
  0
TEXT
  5
1E0
330
1F
100
AcDbEntity
  8
CSLAYER1
 62
     7
100
AcDbText
 10
41.21454185247421
 20
7.034882068634033
 30
0.0
 40
1.0
  1
ｍｍ
 41
0.8181818073446102
  7
FX_VECTOR
 72
     5
 11
42.5002561211586
 21
7.034882068634033
 31
0.0
100
AcDbText
  0
TEXT
  5
1E1
330
1F
100
AcDbEntity
  8
CSLAYER1
 62
     7
100
AcDbText
 10
16.19126296043396
 20
18.61680603027344
 30
0.0
 40
1.25
  1
承　　認
 41
0.8347823267397673
  7
FX_VECTOR
 72
     5
 11
19.61983323097229
 21
18.61680603027344
 31
0.0
100
AcDbText
  0
TEXT
  5
1E2
330
1F
100
AcDbEntity
  8
CSLAYER1
 62
     7
100
AcDbText
 10
15.81442499160767
 20
17.22759246826172
 30
0.0
 40
1.25
  1
ＡＰＰＲＯＶＥＤ
 41
0.6971323378542637
  7
FX_VECTOR
 72
     5
 11
21.66535711288452
 21
17.22759246826172
 31
0.0
100
AcDbText
  0
TEXT
  5
1E3
330
1F
100
AcDbEntity
  8
CSLAYER1
 62
     7
100
AcDbText
 10
16.19126296043396
 20
13.95999908447266
 30
0.0
 40
1.25
  1
照　　査
 41
0.8347823267397673
  7
FX_VECTOR
 72
     5
 11
19.61983323097229
 21
13.95999908447266
 31
0.0
100
AcDbText
  0
TEXT
  5
1E4
330
1F
100
AcDbEntity
  8
CSLAYER1
 62
     7
100
AcDbText
 10
16.0066249370575
 20
12.56092834472656
 30
0.0
 40
1.25
  1
ＲＥＶＩＥＷＥＤ
 41
0.6305273421267246
  7
FX_VECTOR
 72
     5
 11
21.2985508441925
 21
12.56092834472656
 31
0.0
100
AcDbText
  0
TEXT
  5
1E5
330
1F
100
AcDbEntity
  8
CSLAYER1
 62
     7
100
AcDbText
 10
16.10555124282837
 20
9.310340881347656
 30
0.0
 40
1.25
  1
製　　図
 41
0.8727270043414571
  7
FX_VECTOR
 72
     5
 11
19.68996572494507
 21
9.310340881347656
 31
0.0
100
AcDbText
  0
TEXT
  5
1E6
330
1F
100
AcDbEntity
  8
CSLAYER1
 62
     7
100
AcDbText
 10
16.05014282464981
 20
7.894257068634034
 30
0.0
 40
1.25
  1
ＤＲＡＷＮ
 41
0.7019702812720989
  7
FX_VECTOR
 72
     5
 11
19.68534606695175
 21
7.894257068634032
 31
0.0
100
AcDbText
  0
TEXT
  5
1E7
330
1F
100
AcDbEntity
  8
CSLAYER1
 62
     7
100
AcDbText
 10
66.76923537254333
 20
16.48240661621094
 30
0.0
 40
1.25
  1
型　　式
 41
0.8347823267397673
  7
FX_VECTOR
 72
     5
 11
70.19780564308167
 21
16.48240661621094
 31
0.0
100
AcDbText
  0
TEXT
  5
1E8
330
1F
100
AcDbEntity
  8
CSLAYER1
 62
     7
100
AcDbText
 10
66.59548994898796
 20
14.79376983642578
 30
0.0
 40
1.25
  1
ＭＯＤＥＬ
 41
0.7241377583865461
  7
FX_VECTOR
 72
     5
 11
70.34548905491829
 21
14.79376983642578
 31
0.0
100
AcDbText
  0
TEXT
  5
1E9
330
1F
100
AcDbEntity
  8
CSLAYER1
 62
     7
100
AcDbText
 10
66.68142104148865
 20
12.55879974365234
 30
0.0
 40
1.25
  1
図　　名
 41
0.8347823267397673
  7
FX_VECTOR
 72
     5
 11
70.10999131202698
 21
12.55879974365234
 31
0.0
100
AcDbText
  0
TEXT
  5
1EA
330
1F
100
AcDbEntity
  8
CSLAYER1
 62
     7
100
AcDbText
 10
66.40203800797462
 20
10.87016296386719
 30
0.0
 40
1.25
  1
ＴＩＴＬＥ
 41
0.539408724883507
  7
FX_VECTOR
 72
     5
 11
69.1954046189785
 21
10.87016296386719
 31
0.0
100
AcDbText
  0
TEXT
  5
1EB
330
1F
100
AcDbEntity
  8
CSLAYER1
 62
     7
100
AcDbText
 10
66.59360671043396
 20
8.535865783691406
 30
0.0
 40
1.25
  1
図　　番
 41
0.8347823267397673
  7
FX_VECTOR
 72
     5
 11
70.02217698097229
 21
8.535865783691406
 31
0.0
100
AcDbText
  0
TEXT
  5
1EC
330
1F
100
AcDbEntity
  8
CSLAYER1
 62
     7
100
AcDbText
 10
66.6998738348484
 20
6.797562122344972
 30
0.0
 40
1.25
  1
ＤＲＡＷＩＮＧ　Ｎｏ．
 41
0.6314422996227559
  7
FX_VECTOR
 72
     5
 11
74.02911481261253
 21
6.79756212234497
 31
0.0
100
AcDbText
  0
LINE
  5
1ED
330
1F
100
AcDbEntity
  8
CSLAYER1
 62
     7
100
AcDbLine
 10
65.94148936170208
 20
22.25
 30
0.0
 11
102.9414893617021
 21
22.25
 31
0.0
  0
LINE
  5
1EE
330
1F
100
AcDbEntity
  8
CSLAYER1
 62
     7
100
AcDbLine
 10
65.94148936170208
 20
18.25
 30
0.0
 11
102.9414893617021
 21
18.25
 31
0.0
  0
LINE
  5
1EF
330
1F
100
AcDbEntity
  8
CSLAYER1
 62
     7
100
AcDbLine
 10
65.94148936170208
 20
30.25
 30
0.0
 11
102.9414893617021
 21
30.25
 31
0.0
  0
TEXT
  5
1F0
330
1F
100
AcDbEntity
  8
CSLAYER1
 62
     7
100
AcDbText
 10
66.76923537254333
 20
24.37928771972656
 30
0.0
 40
1.25
  1
材　　料
 41
0.8347823267397673
  7
FX_VECTOR
 72
     5
 11
70.19780564308167
 21
24.37928771972656
 31
0.0
100
AcDbText
  0
TEXT
  5
1F1
330
1F
100
AcDbEntity
  8
CSLAYER1
 62
     7
100
AcDbText
 10
66.60432720184326
 20
22.59130859375
 30
0.0
 40
1.25
  1
ＭＡＴＥＲＩＡＬ
 41
0.6038853097469249
  7
FX_VECTOR
 72
     5
 11
71.67265033721924
 21
22.59130859375
 31
0.0
100
AcDbText
  0
TEXT
  5
1F2
330
1F
100
AcDbEntity
  8
CSLAYER1
 62
     7
100
AcDbText
 10
66.76923537254333
 20
20.50534057617188
 30
0.0
 40
1.25
  1
仕　　上
 41
0.8347823267397673
  7
FX_VECTOR
 72
     5
 11
70.19780564308167
 21
20.50534057617188
 31
0.0
100
AcDbText
  0
TEXT
  5
1F3
330
1F
100
AcDbEntity
  8
CSLAYER1
 62
     7
100
AcDbText
 10
66.63881957530975
 20
18.71736907958984
 30
0.0
 40
1.25
  1
ＦＩＮＩＳＨ
 41
0.5445376968383789
  7
FX_VECTOR
 72
     5
 11
70.04218018054962
 21
18.71736907958984
 31
0.0
100
AcDbText
  0
LINE
  5
1F4
330
1F
100
AcDbEntity
  8
CSLAYER1
 62
     7
100
AcDbLine
 10
65.94148936170208
 20
26.25
 30
0.0
 11
102.9414893617021
 21
26.25
 31
0.0
  0
TEXT
  5
1F5
330
1F
100
AcDbEntity
  8
CSLAYER1
 62
     7
100
AcDbText
 10
66.68142104148865
 20
32.62080383300781
 30
0.0
 40
1.25
  1
参　　照
 41
0.8347823267397673
  7
FX_VECTOR
 72
     5
 11
70.10999131202698
 21
32.62080383300781
 31
0.0
100
AcDbText
  0
TEXT
  5
1F6
330
1F
100
AcDbEntity
  8
CSLAYER1
 62
     7
100
AcDbText
 10
66.55898493528366
 20
30.7701416015625
 30
0.0
 40
1.25
  1
ＲＥＦＥＲＥＮＣＥ
 41
0.6779391504683585
  7
FX_VECTOR
 72
     5
 11
72.97519475221634
 21
30.7701416015625
 31
0.0
100
AcDbText
  0
LINE
  5
1F7
330
1F
100
AcDbEntity
  8
CSLAYER1
 62
     7
100
AcDbLine
 10
45.44148936170208
 20
20.25
 30
0.0
 11
45.44148936170208
 21
6.250000000000004
 31
0.0
  0
LINE
  5
1F8
330
1F
100
AcDbEntity
  8
CSLAYER1
 62
     7
100
AcDbLine
 10
16.15515436170209
 20
31.53522600000001
 30
0.0
 11
18.55515436170208
 21
31.53522600000001
 31
0.0
  0
LINE
  5
1F9
330
1F
100
AcDbEntity
  8
CSLAYER1
 62
     7
100
AcDbLine
 10
16.15515436170209
 20
31.53522600000001
 30
0.0
 11
17.35515436170208
 21
33.53522600000001
 31
0.0
  0
LINE
  5
1FA
330
1F
100
AcDbEntity
  8
CSLAYER1
 62
     7
100
AcDbLine
 10
17.35515436170208
 20
33.53522600000001
 30
0.0
 11
18.55515436170208
 21
31.53522600000001
 31
0.0
  0
LINE
  5
1FB
330
1F
100
AcDbEntity
  8
CSLAYER1
 62
     7
100
AcDbLine
 10
16.15515436170209
 20
28.03522600000001
 30
0.0
 11
18.55515436170208
 21
28.03522600000001
 31
0.0
  0
LINE
  5
1FC
330
1F
100
AcDbEntity
  8
CSLAYER1
 62
     7
100
AcDbLine
 10
16.15515436170209
 20
28.03522600000001
 30
0.0
 11
17.35515436170208
 21
30.03522600000001
 31
0.0
  0
LINE
  5
1FD
330
1F
100
AcDbEntity
  8
CSLAYER1
 62
     7
100
AcDbLine
 10
17.35515436170208
 20
30.03522600000001
 30
0.0
 11
18.55515436170208
 21
28.03522600000001
 31
0.0
  0
LINE
  5
1FE
330
1F
100
AcDbEntity
  8
CSLAYER1
 62
     7
100
AcDbLine
 10
16.15515436170209
 20
24.53522600000001
 30
0.0
 11
18.55515436170208
 21
24.53522600000001
 31
0.0
  0
LINE
  5
1FF
330
1F
100
AcDbEntity
  8
CSLAYER1
 62
     7
100
AcDbLine
 10
16.15515436170209
 20
24.53522600000001
 30
0.0
 11
17.35515436170208
 21
26.53522600000001
 31
0.0
  0
LINE
  5
200
330
1F
100
AcDbEntity
  8
CSLAYER1
 62
     7
100
AcDbLine
 10
17.35515436170208
 20
26.53522600000001
 30
0.0
 11
18.55515436170208
 21
24.53522600000001
 31
0.0
  0
TEXT
  5
201
330
1F
100
AcDbEntity
  8
CSLAYER1
 62
     7
100
AcDbText
 10
21.97135269641876
 20
31.12593078613281
 30
0.0
 40
3.0
  1
．．
 41
0.7272727344975328
  7
FX_VECTOR
 72
     5
 11
25.39992415904999
 21
31.12593078613281
 31
0.0
100
AcDbText
  0
TEXT
  5
202
330
1F
100
AcDbEntity
  8
CSLAYER1
 62
     7
100
AcDbText
 10
21.97135269641876
 20
27.62593078613281
 30
0.0
 40
3.0
  1
．．
 41
0.7272727344975328
  7
FX_VECTOR
 72
     5
 11
25.39992415904999
 21
27.62593078613281
 31
0.0
100
AcDbText
  0
TEXT
  5
203
330
1F
100
AcDbEntity
  8
CSLAYER1
 62
     7
100
AcDbText
 10
21.97135269641876
 20
24.12593078613281
 30
0.0
 40
3.0
  1
．．
 41
0.7272727344975328
  7
FX_VECTOR
 72
     5
 11
25.39992415904999
 21
24.12593078613281
 31
0.0
100
AcDbText
  0
LINE
  5
204
330
1F
100
AcDbEntity
  8
CSLAYER1
  6
CENTER
 62
     7
100
AcDbLine
 10
89.68739036170209
 20
72.014538
 30
0.0
 11
33.91199836170209
 21
72.014538
 31
0.0
  0
LINE
  5
205
330
1F
100
AcDbEntity
  8
CSLAYER1
 62
     7
100
AcDbLine
 10
49.41199836170209
 20
92.014538
 30
0.0
 11
35.41199836170209
 21
92.014538
 31
0.0
  0
LINE
  5
206
330
1F
100
AcDbEntity
  8
CSLAYER1
 62
     7
100
AcDbLine
 10
49.41199836170208
 20
52.01453800000001
 30
0.0
 11
35.41199836170209
 21
52.01453800000001
 31
0.0
  0
LINE
  5
207
330
1F
100
AcDbEntity
  8
CSLAYER1
 62
     7
100
AcDbLine
 10
49.41199836170209
 20
92.014538
 30
0.0
 11
49.41199836170209
 21
90.014538
 31
0.0
  0
LINE
  5
208
330
1F
100
AcDbEntity
  8
CSLAYER1
 62
     7
100
AcDbLine
 10
67.55811136170209
 20
92.014538
 30
0.0
 11
67.55811136170209
 21
52.014538
 31
0.0
  0
LINE
  5
209
330
1F
100
AcDbEntity
  8
CSLAYER1
 62
     7
100
AcDbLine
 10
86.55811136170209
 20
52.014538
 30
0.0
 11
67.55811136170209
 21
52.014538
 31
0.0
  0
LINE
  5
20A
330
1F
100
AcDbEntity
  8
CSLAYER1
 62
     7
100
AcDbLine
 10
86.55811136170209
 20
92.014538
 30
0.0
 11
86.55811136170209
 21
52.014538
 31
0.0
  0
LINE
  5
20B
330
1F
100
AcDbEntity
  8
CSLAYER1
  6
CENTER
 62
     7
100
AcDbLine
 10
39.41199836170209
 20
92.014538
 30
0.0
 11
39.41199836170209
 21
58.275074
 31
0.0
  0
LINE
  5
20C
330
1F
100
AcDbEntity
  8
CSLAYER1
  6
CENTER
 62
     7
100
AcDbLine
 10
42.55336536170208
 20
82.014538
 30
0.0
 11
34.41199836170209
 21
82.014538
 31
0.0
  0
LINE
  5
20D
330
1F
100
AcDbEntity
  8
CSLAYER1
  6
CENTER
 62
     7
100
AcDbLine
 10
42.55336536170208
 20
62.01453800000001
 30
0.0
 11
34.41199836170209
 21
62.01453800000001
 31
0.0
  0
CIRCLE
  5
20E
330
1F
100
AcDbEntity
  8
CSLAYER1
 62
     7
100
AcDbCircle
 10
39.41199836170209
 20
82.014538
 30
0.0
 40
2.1
  0
CIRCLE
  5
20F
330
1F
100
AcDbEntity
  8
CSLAYER1
 62
     7
100
AcDbCircle
 10
39.41199836170209
 20
62.01453800000001
 30
0.0
 40
2.1
  0
LINE
  5
210
330
1F
100
AcDbEntity
  8
CSLAYER1
  6
CENTER
 62
     7
100
AcDbLine
 10
77.05811136170209
 20
129.973157
 30
0.0
 11
77.05811136170209
 21
48.814522
 31
0.0
  0
CIRCLE
  5
211
330
1F
100
AcDbEntity
  8
CSLAYER1
 62
     7
100
AcDbCircle
 10
77.05811136170209
 20
82.514538
 30
0.0
 40
7.5
  0
CIRCLE
  5
212
330
1F
100
AcDbEntity
  8
CSLAYER1
 62
     7
100
AcDbCircle
 10
77.05811136170209
 20
61.514538
 30
0.0
 40
7.5
  0
INSERT
  5
216
330
1F
100
AcDbEntity
  8
CSLAYER1
 62
     7
100
AcDbBlockReference
  2
BLKF023
 10
0.0
 20
0.0
 30
0.0
  0
INSERT
  5
223
330
1F
100
AcDbEntity
  8
CSLAYER1
 62
     7
100
AcDbBlockReference
  2
BLKF024
 10
0.0
 20
0.0
 30
0.0
  0
INSERT
  5
22F
330
1F
100
AcDbEntity
  8
CSLAYER1
 62
     7
100
AcDbBlockReference
  2
BLKF025
 10
0.0
 20
0.0
 30
0.0
  0
LINE
  5
239
330
1F
100
AcDbEntity
  8
CSLAYER1
 62
     7
100
AcDbLine
 10
69.05811136170209
 20
85.514538
 30
0.0
 11
69.05811136170209
 21
58.514538
 31
0.0
  0
LINE
  5
23A
330
1F
100
AcDbEntity
  8
CSLAYER1
 62
     7
100
AcDbLine
 10
85.05811136170209
 20
85.514538
 30
0.0
 11
85.05811136170209
 21
58.514538
 31
0.0
  0
LINE
  5
23B
330
1F
100
AcDbEntity
  8
CSLAYER1
 62
     7
100
AcDbLine
 10
74.05811136170209
 20
90.514538
 30
0.0
 11
80.05811136170209
 21
90.514538
 31
0.0
  0
LINE
  5
23C
330
1F
100
AcDbEntity
  8
CSLAYER1
 62
     7
100
AcDbLine
 10
80.05811136170209
 20
53.514538
 30
0.0
 11
74.05811136170209
 21
53.514538
 31
0.0
  0
LINE
  5
23D
330
1F
100
AcDbEntity
  8
CSLAYER1
 62
     7
100
AcDbLine
 10
67.55811136170209
 20
92.014538
 30
0.0
 11
86.55811136170209
 21
92.014538
 31
0.0
  0
ARC
  5
23E
330
1F
100
AcDbEntity
  8
CSLAYER1
 62
     7
100
AcDbCircle
 10
74.05811136170209
 20
85.514538
 30
0.0
 40
5.0
100
AcDbArc
 50
90.0
 51
180.0
  0
ARC
  5
23F
330
1F
100
AcDbEntity
  8
CSLAYER1
 62
     7
100
AcDbCircle
 10
80.05811136170209
 20
85.514538
 30
0.0
 40
5.0
100
AcDbArc
 50
0.0
 51
90.0
  0
ARC
  5
240
330
1F
100
AcDbEntity
  8
CSLAYER1
 62
     7
100
AcDbCircle
 10
74.05811136170209
 20
58.514538
 30
0.0
 40
5.0
100
AcDbArc
 50
180.0
 51
270.0
  0
ARC
  5
241
330
1F
100
AcDbEntity
  8
CSLAYER1
 62
     7
100
AcDbCircle
 10
80.05811136170209
 20
58.514538
 30
0.0
 40
5.0
100
AcDbArc
 50
270.0
 51
0.0
  0
LINE
  5
242
330
1F
100
AcDbEntity
  8
CSLAYER1
 62
     7
100
AcDbLine
 10
67.55811136170209
 20
123.449304
 30
0.0
 11
67.55811136170209
 21
109.449304
 31
0.0
  0
LINE
  5
243
330
1F
100
AcDbEntity
  8
CSLAYER1
 62
     7
100
AcDbLine
 10
86.55811136170209
 20
123.449304
 30
0.0
 11
86.55811136170209
 21
109.449304
 31
0.0
  0
LINE
  5
244
330
1F
100
AcDbEntity
  8
CSLAYER1
 62
     7
100
AcDbLine
 10
86.55811136170209
 20
123.449304
 30
0.0
 11
67.55811136170209
 21
123.449304
 31
0.0
  0
LINE
  5
245
330
1F
100
AcDbEntity
  8
CSLAYER1
 62
     7
100
AcDbLine
 10
86.55811136170209
 20
109.449304
 30
0.0
 11
67.55811136170209
 21
109.449304
 31
0.0
  0
INSERT
  5
249
330
1F
100
AcDbEntity
  8
CSLAYER1
 62
     7
100
AcDbBlockReference
  2
BLKF026
 10
0.0
 20
0.0
 30
0.0
  0
TEXT
  5
24F
330
1F
100
AcDbEntity
  8
CSLAYER1
 62
     7
100
AcDbText
 10
78.94097137451172
 20
15.13121604919434
 30
0.0
 40
1.919999957084656
  1
ＧＹＫＳ
 41
0.9749671905172703
  7
FX_VECTOR
 72
     5
 11
85.09162139892578
 21
15.13121604919434
 31
0.0
100
AcDbText
  0
TEXT
  5
250
330
1F
100
AcDbEntity
  8
CSLAYER1
 62
     7
100
AcDbText
 10
78.7711238861084
 20
10.98039436340332
 30
0.0
 40
1.919999957084656
  1
ＴＷ型マグネット
 41
0.8880664046590679
  7
FX_VECTOR
 72
     5
 11
90.21956825256348
 21
10.98039436340332
 31
0.0
100
AcDbText
  0
TEXT
  5
251
330
1F
100
AcDbEntity
  8
CSLAYER1
 62
     7
100
AcDbText
 10
36.64147186279297
 20
10.66679000854492
 30
0.0
 40
2.400000095367432
  1
２
 41
1.1666666203075
  7
FX_VECTOR
 72
     5
 11
38.64147186279297
 21
10.66679000854492
 31
0.0
100
AcDbText
  0
TEXT
  5
252
330
1F
100
AcDbEntity
  8
CSLAYER1
 62
     7
100
AcDbText
 10
42.05270057916641
 20
10.58642482757568
 30
0.0
 40
2.400000095367432
  1
１
 41
0.4166666600439286
  7
FX_VECTOR
 72
     5
 11
42.76698631048203
 21
10.58642482757568
 31
0.0
100
AcDbText
  0
TEXT
  5
253
330
1F
100
AcDbEntity
  8
CSLAYER1
 62
     7
100
AcDbText
 10
34.17265874147415
 20
15.0065279006958
 30
0.0
 40
1.679999947547913
  1
０８．１０．７
 41
0.8109756248995544
  7
FX_VECTOR
 72
     5
 11
42.15265864133835
 21
15.0065279006958
 31
0.0
100
AcDbText
  0
LINE
  5
254
330
1F
100
AcDbEntity
  8
CSLAYER1
 62
     7
100
AcDbLine
 10
49.41199836170209
 20
69.014538
 30
0.0
 11
49.41199836170208
 21
54.01453800000001
 31
0.0
  0
LINE
  5
255
330
1F
100
AcDbEntity
  8
CSLAYER1
 62
     7
100
AcDbLine
 10
49.41199836170208
 20
54.01453800000001
 30
0.0
 11
49.41199836170208
 21
52.01453800000001
 31
0.0
  0
LINE
  5
256
330
1F
100
AcDbEntity
  8
CSLAYER1
 62
     7
100
AcDbLine
 10
49.41199836170209
 20
90.014538
 30
0.0
 11
49.41199836170209
 21
75.014538
 31
0.0
  0
LINE
  5
257
330
1F
100
AcDbEntity
  8
CSLAYER1
 62
     7
100
AcDbLine
 10
49.41199836170209
 20
75.014538
 30
0.0
 11
49.41199836170209
 21
69.014538
 31
0.0
  0
LINE
  5
258
330
1F
100
AcDbEntity
  8
CSLAYER1
  6
CENTER
 62
     7
100
AcDbLine
 10
89.36946236170209
 20
119.449304
 30
0.0
 11
64.37232236170209
 21
119.449304
 31
0.0
  0
LINE
  5
25A
330
1F
100
AcDbEntity
  8
CSLAYER1
  6
DASHED
 62
     7
100
AcDbLine
 10
86.55811136170209
 20
121.549304
 30
0.0
 11
67.55811136170209
 21
121.549304
 31
0.0
  0
LINE
  5
25B
330
1F
100
AcDbEntity
  8
CSLAYER1
  6
DASHED
 62
     7
100
AcDbLine
 10
86.55811136170209
 20
117.349304
 30
0.0
 11
67.55811136170209
 21
117.349304
 31
0.0
  0
LINE
  5
25C
330
1F
100
AcDbEntity
  8
CSLAYER1
  6
DASHED
 62
     7
100
AcDbLine
 10
86.55811136170209
 20
84.114538
 30
0.0
 11
67.55811136170209
 21
84.114538
 31
0.0
  0
LINE
  5
25D
330
1F
100
AcDbEntity
  8
CSLAYER1
  6
DASHED
 62
     7
100
AcDbLine
 10
86.55811136170209
 20
79.914538
 30
0.0
 11
67.55811136170209
 21
79.914538
 31
0.0
  0
LINE
  5
25E
330
1F
100
AcDbEntity
  8
CSLAYER1
  6
DASHED
 62
     7
100
AcDbLine
 10
86.55811136170209
 20
64.114538
 30
0.0
 11
67.55811136170209
 21
64.114538
 31
0.0
  0
LINE
  5
25F
330
1F
100
AcDbEntity
  8
CSLAYER1
  6
DASHED
 62
     7
100
AcDbLine
 10
86.55811136170209
 20
59.914538
 30
0.0
 11
67.55811136170209
 21
59.914538
 31
0.0
  0
LINE
  5
260
330
1F
100
AcDbEntity
  8
CSLAYER1
 62
     7
100
AcDbLine
 10
35.41199836170209
 20
92.014538
 30
0.0
 11
35.41199836170209
 21
52.01453800000001
 31
0.0
  0
INSERT
  5
264
330
1F
100
AcDbEntity
  8
CSLAYER1
 62
     7
100
AcDbBlockReference
  2
BLKF027
 10
0.0
 20
0.0
 30
0.0
  0
INSERT
  5
271
330
1F
100
AcDbEntity
  8
CSLAYER1
 62
     7
100
AcDbBlockReference
  2
BLKF028
 10
0.0
 20
0.0
 30
0.0
  0
INSERT
  5
27E
330
1F
100
AcDbEntity
  8
CSLAYER1
 62
     7
100
AcDbBlockReference
  2
BLKF029
 10
0.0
 20
0.0
 30
0.0
  0
TEXT
  5
289
330
1F
100
AcDbEntity
  8
CSLAYER1
 62
     7
100
AcDbText
 10
52.44511413574219
 20
61.52271270751953
 30
0.0
 40
2.400000095367432
  1
Ｎ
 50
90.0
 41
1.1666666203075
  7
FX_VECTOR
 72
     5
 11
52.44511413574219
 21
63.52271270751953
 31
0.0
100
AcDbText
  0
TEXT
  5
28A
330
1F
100
AcDbEntity
  8
CSLAYER1
 62
     7
100
AcDbText
 10
52.44511413574219
 20
82.52271270751953
 30
0.0
 40
2.400000095367432
  1
Ｎ
 50
90.0
 41
1.1666666203075
  7
FX_VECTOR
 72
     5
 11
52.44511413574219
 21
84.52271270751953
 31
0.0
100
AcDbText
  0
TEXT
  5
28B
330
1F
100
AcDbEntity
  8
CSLAYER1
 62
     7
100
AcDbText
 10
79.00963306427002
 20
7.131216049194338
 30
0.0
 40
1.919999957084656
  1
ＭＧ－４－１５６
 41
1.04841167429439
  7
FX_VECTOR
 72
     5
 11
92.52515697479248
 21
7.131216049194334
 31
0.0
100
AcDbText
  0
TEXT
  5
28C
330
1F
100
AcDbEntity
  8
CSLAYER1
 62
     7
100
AcDbText
 10
78.92807877063751
 20
22.49121475219727
 30
0.0
 40
1.919999957084656
  1
黄銅（ホルダー本体）
 41
0.8036236505692017
  7
FX_VECTOR
 72
     5
 11
91.93300521373749
 21
22.49121475219727
 31
0.0
100
AcDbText
  0
INSERT
  5
290
330
1F
100
AcDbEntity
  8
CSLAYER1
 62
     7
100
AcDbBlockReference
  2
BLKF030
 10
0.0
 20
0.0
 30
0.0
  0
LINE
  5
29A
330
1F
100
AcDbEntity
  8
CSLAYER1
  6
DASHED
 62
     7
100
AcDbLine
 10
49.41199836170208
 20
54.01453800000001
 30
0.0
 11
44.41199836170209
 21
54.01453800000001
 31
0.0
  0
LINE
  5
29B
330
1F
100
AcDbEntity
  8
CSLAYER1
  6
DASHED
 62
     7
100
AcDbLine
 10
49.41199836170209
 20
69.014538
 30
0.0
 11
44.41199836170209
 21
69.014538
 31
0.0
  0
LINE
  5
29C
330
1F
100
AcDbEntity
  8
CSLAYER1
  6
DASHED
 62
     7
100
AcDbLine
 10
49.41199836170209
 20
75.014538
 30
0.0
 11
44.41199836170209
 21
75.014538
 31
0.0
  0
LINE
  5
29D
330
1F
100
AcDbEntity
  8
CSLAYER1
  6
DASHED
 62
     7
100
AcDbLine
 10
49.41199836170209
 20
90.014538
 30
0.0
 11
44.41199836170209
 21
90.014538
 31
0.0
  0
LINE
  5
29E
330
1F
100
AcDbEntity
  8
CSLAYER1
 62
     7
100
AcDbLine
 10
49.41199836170209
 20
69.014538
 30
0.0
 11
49.41199836170208
 21
54.01453800000001
 31
0.0
  0
LINE
  5
29F
330
1F
100
AcDbEntity
  8
CSLAYER1
  6
DASHED
 62
     7
100
AcDbLine
 10
44.41199836170209
 20
69.014538
 30
0.0
 11
44.41199836170209
 21
54.01453800000001
 31
0.0
  0
LINE
  5
2A0
330
1F
100
AcDbEntity
  8
CSLAYER1
  6
DASHED
 62
     7
100
AcDbLine
 10
44.41199836170209
 20
90.014538
 30
0.0
 11
44.41199836170209
 21
75.014538
 31
0.0
  0
TEXT
  5
2A1
330
1F
100
AcDbEntity
  8
CSLAYER1
 62
     7
100
AcDbText
 10
96.268310546875
 20
105.1305577754974
 30
0.0
 40
2.0
  1
注：角は全て糸面取りのこと。
 50
90.0
 41
0.7590364864073604
  7
FX_VECTOR
 72
     5
 11
96.268310546875
 21
123.1305658817291
 31
0.0
100
AcDbText
  0
TEXT
  5
2A2
330
1F
100
AcDbEntity
  8
CSLAYER1
 62
     7
100
AcDbText
 10
18.49636620283127
 20
24.70596885681152
 30
0.0
 40
1.200000047683716
  1
２００９　１０　２９
 41
0.7597893932259188
  7
FX_VECTOR
 72
     5
 11
26.18109351396561
 21
24.70596885681152
 31
0.0
100
AcDbText
  0
TEXT
  5
2A3
330
1F
100
AcDbEntity
  8
CSLAYER1
 62
     7
100
AcDbText
 10
17.21861484646797
 20
24.57434272766113
 30
0.0
 40
1.25
  1
１
 41
0.4000000095367432
  7
FX_VECTOR
 72
     5
 11
17.57575771212578
 21
24.57434272766113
 31
0.0
100
AcDbText
  0
TEXT
  5
2A4
330
1F
100
AcDbEntity
  8
CSLAYER1
 62
     7
100
AcDbText
 10
29.0562686920166
 20
24.3619441986084
 30
0.0
 40
1.5
  1
図名追記
 41
0.8347823654395947
  7
FX_VECTOR
 72
     5
 11
33.17055320739746
 21
24.3619441986084
 31
0.0
100
AcDbText
  0
LINE
  5
2A5
330
1F
100
AcDbEntity
  8
CSLAYER1
 62
     7
100
AcDbLine
 10
75.91235736170208
 20
11.086588
 30
0.0
 11
78.31235736170208
 21
11.086588
 31
0.0
  0
LINE
  5
2A6
330
1F
100
AcDbEntity
  8
CSLAYER1
 62
     7
100
AcDbLine
 10
75.91235736170208
 20
11.086588
 30
0.0
 11
77.11235736170208
 21
13.086588
 31
0.0
  0
LINE
  5
2A7
330
1F
100
AcDbEntity
  8
CSLAYER1
 62
     7
100
AcDbLine
 10
77.11235736170208
 20
13.086588
 30
0.0
 11
78.31235736170208
 21
11.086588
 31
0.0
  0
TEXT
  5
2A8
330
1F
100
AcDbEntity
  8
CSLAYER1
 62
     7
100
AcDbText
 10
76.97581699490547
 20
11.12570381164551
 30
0.0
 40
1.25
  1
１
 41
0.4000000095367432
  7
FX_VECTOR
 72
     5
 11
77.33295986056328
 21
11.12570381164551
 31
0.0
100
AcDbText
  0
LINE
  5
2AA
330
1F
100
AcDbEntity
  8
CSLAYER1
  6
DOT
 62
     7
100
AcDbLine
 10
84.65811136170208
 20
86.664538
 30
0.0
 11
81.15811136170208
 21
90.164538
 31
0.0
  0
ENDSEC
  0
SECTION
  2
OBJECTS
  0
DICTIONARY
  5
C
330
0
100
AcDbDictionary
281
     1
  3
ACAD_DETAILVIEWSTYLE
350
2F0
  3
ACAD_GROUP
350
D
  3
ACAD_LAYOUT
350
1A
  3
ACAD_MATERIAL
350
43
  3
ACAD_MLEADERSTYLE
350
6B
  3
ACAD_MLINESTYLE
350
17
  3
ACAD_PLOTSETTINGS
350
19
  3
ACAD_PLOTSTYLENAME
350
E
  3
ACAD_SCALELIST
350
47
  3
ACAD_SECTIONVIEWSTYLE
350
2F1
  3
ACAD_TABLESTYLE
350
69
  3
ACAD_VISUALSTYLE
350
2A
  3
ACDB_RECOMPOSE_DATA
350
2ED
  3
AcDbVariableDictionary
350
2AD
  0
DICTIONARY
  5
2AB
330
8
100
AcDbDictionary
280
     1
281
     1
  3
ACAD_XREC_ROUNDTRIP
360
2AC
  0
DICTIONARY
  5
2F0
102
{ACAD_REACTORS
330
C
102
}
330
C
100
AcDbDictionary
281
     1
  0
DICTIONARY
  5
D
102
{ACAD_REACTORS
330
C
102
}
330
C
100
AcDbDictionary
281
     1
  0
DICTIONARY
  5
1A
102
{ACAD_REACTORS
330
C
102
}
330
C
100
AcDbDictionary
281
     1
  3
Layout1
350
1E
  3
Layout2
350
26
  3
Model
350
22
  0
DICTIONARY
  5
43
102
{ACAD_REACTORS
330
C
102
}
330
C
100
AcDbDictionary
281
     1
  3
ByBlock
350
45
  3
ByLayer
350
44
  3
Global
350
46
  0
DICTIONARY
  5
6B
102
{ACAD_REACTORS
330
C
102
}
330
C
100
AcDbDictionary
281
     1
  3
Standard
350
6C
  0
DICTIONARY
  5
17
102
{ACAD_REACTORS
330
C
102
}
330
C
100
AcDbDictionary
281
     1
  3
Standard
350
18
  0
DICTIONARY
  5
19
102
{ACAD_REACTORS
330
C
102
}
330
C
100
AcDbDictionary
281
     1
  0
ACDBDICTIONARYWDFLT
  5
E
102
{ACAD_REACTORS
330
C
102
}
330
C
100
AcDbDictionary
281
     1
  3
Normal
350
F
100
AcDbDictionaryWithDefault
340
F
  0
DICTIONARY
  5
47
102
{ACAD_REACTORS
330
C
102
}
330
C
100
AcDbDictionary
281
     1
  3
A0
350
48
  3
A1
350
49
  3
A2
350
4A
  3
A3
350
4B
  3
A4
350
4C
  3
A5
350
4D
  3
A6
350
4E
  3
A7
350
4F
  3
A8
350
50
  3
A9
350
51
  3
B0
350
52
  3
B1
350
53
  3
B2
350
54
  3
B3
350
55
  3
B4
350
56
  3
B5
350
57
  3
B6
350
58
  3
B7
350
59
  3
B8
350
5A
  3
B9
350
5B
  3
C0
350
5C
  3
C1
350
5D
  3
C2
350
5E
  3
C3
350
5F
  3
C4
350
60
  3
C5
350
61
  3
C6
350
62
  3
C7
350
63
  3
C8
350
64
  3
C9
350
65
  3
D0
350
66
  3
D1
350
67
  3
D2
350
68
  0
DICTIONARY
  5
2F1
102
{ACAD_REACTORS
330
C
102
}
330
C
100
AcDbDictionary
281
     1
  0
DICTIONARY
  5
69
102
{ACAD_REACTORS
330
C
102
}
330
C
100
AcDbDictionary
281
     1
  3
Standard
350
6A
  0
DICTIONARY
  5
2A
102
{ACAD_REACTORS
330
C
102
}
330
C
100
AcDbDictionary
281
     1
  3
2dWireframe
350
2F
  3
Basic
350
32
  3
Brighten
350
36
  3
ColorChange
350
3A
  3
Conceptual
350
34
  3
Dim
350
35
  3
EdgeColorOff
350
3D
  3
Facepattern
350
39
  3
Flat
350
2B
  3
FlatWithEdges
350
2C
  3
Gouraud
350
2D
  3
GouraudWithEdges
350
2E
  3
Hidden
350
31
  3
JitterOff
350
3B
  3
Linepattern
350
38
  3
OverhangOff
350
3C
  3
Realistic
350
33
  3
Shaded
350
42
  3
Shaded with edges
350
41
  3
Shades of Gray
350
3E
  3
Sketchy
350
3F
  3
Thicken
350
37
  3
Wireframe
350
30
  3
X-Ray
350
40
  0
XRECORD
  5
2ED
102
{ACAD_REACTORS
330
C
102
}
330
C
100
AcDbXrecord
280
     1
 90
        1
330
6A
  0
DICTIONARY
  5
2AD
102
{ACAD_REACTORS
330
C
102
}
330
C
100
AcDbDictionary
281
     1
  3
CANNOSCALE
350
2AE
  3
CMLEADERSTYLE
350
2EF
  3
CTABLESTYLE
350
2EE
  3
MSLTSCALE
350
2AF
  3
XCLIPFRAME
350
2B0
  0
XRECORD
  5
2AC
102
{ACAD_REACTORS
330
2AB
102
}
330
2AB
100
AcDbXrecord
280
     1
102
VTR_0.000_0.000_1.000_1.000_GRIDDISPLAY
 70
     3
102
VTR_0.000_0.000_1.000_1.000_GRIDMAJOR
 70
     5
102
VTR_0.000_0.000_1.000_1.000_DEFAULTLIGHTING
280
     1
102
VTR_0.000_0.000_1.000_1.000_DEFAULTLIGHTINGTYPE
 70
     1
102
VTR_0.000_0.000_1.000_1.000_BRIGHTNESS
141
0.0
102
VTR_0.000_0.000_1.000_1.000_CONTRAST
142
0.0
  0
LAYOUT
  5
1E
102
{ACAD_REACTORS
330
1A
102
}
330
1A
100
AcDbPlotSettings
  1

  2
none_device
  4

  6

 40
0.0
 41
0.0
 42
0.0
 43
0.0
 44
0.0
 45
0.0
 46
0.0
 47
0.0
 48
0.0
 49
0.0
140
0.0
141
0.0
142
1.0
143
1.0
 70
   688
 72
     1
 73
     0
 74
     5
  7

 75
    16
 76
     0
 77
     2
 78
   300
147
1.0
148
0.0
149
0.0
100
AcDbLayout
  1
Layout1
 70
     1
 71
     1
 10
0.0
 20
0.0
 11
420.0
 21
297.0
 12
0.0
 22
0.0
 32
0.0
 14
1.000000000000000E+20
 24
1.000000000000000E+20
 34
1.000000000000000E+20
 15
-1.000000000000000E+20
 25
-1.000000000000000E+20
 35
-1.000000000000000E+20
146
0.0
 13
0.0
 23
0.0
 33
0.0
 16
1.0
 26
0.0
 36
0.0
 17
0.0
 27
1.0
 37
0.0
 76
     0
330
1B
  0
LAYOUT
  5
26
102
{ACAD_REACTORS
330
1A
102
}
330
1A
100
AcDbPlotSettings
  1

  2
none_device
  4

  6

 40
0.0
 41
0.0
 42
0.0
 43
0.0
 44
0.0
 45
0.0
 46
0.0
 47
0.0
 48
0.0
 49
0.0
140
0.0
141
0.0
142
1.0
143
1.0
 70
   688
 72
     1
 73
     0
 74
     5
  7

 75
    16
 76
     0
 77
     2
 78
   300
147
1.0
148
0.0
149
0.0
100
AcDbLayout
  1
Layout2
 70
     1
 71
     2
 10
0.0
 20
0.0
 11
0.0
 21
0.0
 12
0.0
 22
0.0
 32
0.0
 14
0.0
 24
0.0
 34
0.0
 15
0.0
 25
0.0
 35
0.0
146
0.0
 13
0.0
 23
0.0
 33
0.0
 16
1.0
 26
0.0
 36
0.0
 17
0.0
 27
1.0
 37
0.0
 76
     0
330
23
  0
LAYOUT
  5
22
102
{ACAD_REACTORS
330
1A
102
}
330
1A
100
AcDbPlotSettings
  1

  2
none_device
  4
Letter_(8.50_x_11.00_Inches)
  6

 40
6.35
 41
6.35
 42
6.35000508
 43
6.35000508
 44
215.9
 45
279.4
 46
0.0
 47
0.0
 48
0.0
 49
0.0
140
0.0
141
0.0
142
1.0
143
1.0
 70
  1712
 72
     1
 73
     0
 74
     0
  7

 75
     0
 76
     0
 77
     2
 78
   300
147
1.0
148
0.0
149
0.0
100
AcDbLayout
  1
Model
 70
     1
 71
     0
 10
-15.25
 20
-15.5
 11
163.75
 21
124.5
 12
-15.25
 22
-15.5
 32
0.0
 14
-15.25
 24
-15.5
 34
0.0
 15
163.75
 25
124.5
 35
0.0
146
0.0
 13
0.0
 23
0.0
 33
0.0
 16
1.0
 26
0.0
 36
0.0
 17
0.0
 27
1.0
 37
0.0
 76
     0
330
1F
331
29
  0
MATERIAL
  5
45
102
{ACAD_REACTORS
330
43
102
}
102
{ACAD_XDICTIONARY
360
2E3
102
}
330
43
100
AcDbMaterial
  1
ByBlock
  0
MATERIAL
  5
44
102
{ACAD_REACTORS
330
43
102
}
102
{ACAD_XDICTIONARY
360
2E1
102
}
330
43
100
AcDbMaterial
  1
ByLayer
  0
MATERIAL
  5
46
102
{ACAD_REACTORS
330
43
102
}
102
{ACAD_XDICTIONARY
360
2E5
102
}
330
43
100
AcDbMaterial
  1
Global
  0
MLEADERSTYLE
  5
6C
102
{ACAD_REACTORS
330
6B
102
}
102
{ACAD_XDICTIONARY
360
2EB
102
}
330
6B
100
AcDbMLeaderStyle
170
     2
171
     1
172
     0
 90
        2
 40
0.0
 41
0.0
173
     1
 91
-1056964608
340
14
 92
       -2
290
     1
 42
2.0
291
     1
 43
8.0
  3
Standard
341
0
 44
4.0
300

342
11
174
     1
178
     6
175
     1
176
     0
 93
-1056964608
 45
4.0
292
     0
297
     0
 46
4.0
343
0
 94
-1056964608
 47
1.0
 49
1.0
140
1.0
293
     1
141
0.0
294
     1
177
     0
142
1.0
295
     0
296
     0
143
3.75
1001
ACAD_MLEADERVER
1070
     2
  0
MLINESTYLE
  5
18
102
{ACAD_REACTORS
330
17
102
}
330
17
100
AcDbMlineStyle
  2
Standard
 70
     0
  3

 62
   256
 51
90.0
 52
90.0
 71
     2
 49
0.5
 62
   256
  6
BYLAYER
 49
-0.5
 62
   256
  6
BYLAYER
  0
ACDBPLACEHOLDER
  5
F
102
{ACAD_REACTORS
330
E
102
}
330
E
  0
SCALE
  5
48
102
{ACAD_REACTORS
330
47
102
}
330
47
100
AcDbScale
 70
     0
300
1:1
140
1.0
141
1.0
290
     1
  0
SCALE
  5
49
102
{ACAD_REACTORS
330
47
102
}
330
47
100
AcDbScale
 70
     0
300
1:2
140
1.0
141
2.0
290
     0
  0
SCALE
  5
4A
102
{ACAD_REACTORS
330
47
102
}
330
47
100
AcDbScale
 70
     0
300
1:4
140
1.0
141
4.0
290
     0
  0
SCALE
  5
4B
102
{ACAD_REACTORS
330
47
102
}
330
47
100
AcDbScale
 70
     0
300
1:5
140
1.0
141
5.0
290
     0
  0
SCALE
  5
4C
102
{ACAD_REACTORS
330
47
102
}
330
47
100
AcDbScale
 70
     0
300
1:8
140
1.0
141
8.0
290
     0
  0
SCALE
  5
4D
102
{ACAD_REACTORS
330
47
102
}
330
47
100
AcDbScale
 70
     0
300
1:10
140
1.0
141
10.0
290
     0
  0
SCALE
  5
4E
102
{ACAD_REACTORS
330
47
102
}
330
47
100
AcDbScale
 70
     0
300
1:16
140
1.0
141
16.0
290
     0
  0
SCALE
  5
4F
102
{ACAD_REACTORS
330
47
102
}
330
47
100
AcDbScale
 70
     0
300
1:20
140
1.0
141
20.0
290
     0
  0
SCALE
  5
50
102
{ACAD_REACTORS
330
47
102
}
330
47
100
AcDbScale
 70
     0
300
1:30
140
1.0
141
30.0
290
     0
  0
SCALE
  5
51
102
{ACAD_REACTORS
330
47
102
}
330
47
100
AcDbScale
 70
     0
300
1:40
140
1.0
141
40.0
290
     0
  0
SCALE
  5
52
102
{ACAD_REACTORS
330
47
102
}
330
47
100
AcDbScale
 70
     0
300
1:50
140
1.0
141
50.0
290
     0
  0
SCALE
  5
53
102
{ACAD_REACTORS
330
47
102
}
330
47
100
AcDbScale
 70
     0
300
1:100
140
1.0
141
100.0
290
     0
  0
SCALE
  5
54
102
{ACAD_REACTORS
330
47
102
}
330
47
100
AcDbScale
 70
     0
300
2:1
140
2.0
141
1.0
290
     0
  0
SCALE
  5
55
102
{ACAD_REACTORS
330
47
102
}
330
47
100
AcDbScale
 70
     0
300
4:1
140
4.0
141
1.0
290
     0
  0
SCALE
  5
56
102
{ACAD_REACTORS
330
47
102
}
330
47
100
AcDbScale
 70
     0
300
8:1
140
8.0
141
1.0
290
     0
  0
SCALE
  5
57
102
{ACAD_REACTORS
330
47
102
}
330
47
100
AcDbScale
 70
     0
300
10:1
140
10.0
141
1.0
290
     0
  0
SCALE
  5
58
102
{ACAD_REACTORS
330
47
102
}
330
47
100
AcDbScale
 70
     0
300
100:1
140
100.0
141
1.0
290
     0
  0
SCALE
  5
59
102
{ACAD_REACTORS
330
47
102
}
330
47
100
AcDbScale
 70
     0
300
1/128" = 1'-0"
140
0.0078125
141
12.0
290
     0
  0
SCALE
  5
5A
102
{ACAD_REACTORS
330
47
102
}
330
47
100
AcDbScale
 70
     0
300
1/64" = 1'-0"
140
0.015625
141
12.0
290
     0
  0
SCALE
  5
5B
102
{ACAD_REACTORS
330
47
102
}
330
47
100
AcDbScale
 70
     0
300
1/32" = 1'-0"
140
0.03125
141
12.0
290
     0
  0
SCALE
  5
5C
102
{ACAD_REACTORS
330
47
102
}
330
47
100
AcDbScale
 70
     0
300
1/16" = 1'-0"
140
0.0625
141
12.0
290
     0
  0
SCALE
  5
5D
102
{ACAD_REACTORS
330
47
102
}
330
47
100
AcDbScale
 70
     0
300
3/32" = 1'-0"
140
0.09375
141
12.0
290
     0
  0
SCALE
  5
5E
102
{ACAD_REACTORS
330
47
102
}
330
47
100
AcDbScale
 70
     0
300
1/8" = 1'-0"
140
0.125
141
12.0
290
     0
  0
SCALE
  5
5F
102
{ACAD_REACTORS
330
47
102
}
330
47
100
AcDbScale
 70
     0
300
3/16" = 1'-0"
140
0.1875
141
12.0
290
     0
  0
SCALE
  5
60
102
{ACAD_REACTORS
330
47
102
}
330
47
100
AcDbScale
 70
     0
300
1/4" = 1'-0"
140
0.25
141
12.0
290
     0
  0
SCALE
  5
61
102
{ACAD_REACTORS
330
47
102
}
330
47
100
AcDbScale
 70
     0
300
3/8" = 1'-0"
140
0.375
141
12.0
290
     0
  0
SCALE
  5
62
102
{ACAD_REACTORS
330
47
102
}
330
47
100
AcDbScale
 70
     0
300
1/2" = 1'-0"
140
0.5
141
12.0
290
     0
  0
SCALE
  5
63
102
{ACAD_REACTORS
330
47
102
}
330
47
100
AcDbScale
 70
     0
300
3/4" = 1'-0"
140
0.75
141
12.0
290
     0
  0
SCALE
  5
64
102
{ACAD_REACTORS
330
47
102
}
330
47
100
AcDbScale
 70
     0
300
1" = 1'-0"
140
1.0
141
12.0
290
     0
  0
SCALE
  5
65
102
{ACAD_REACTORS
330
47
102
}
330
47
100
AcDbScale
 70
     0
300
1-1/2" = 1'-0"
140
1.5
141
12.0
290
     0
  0
SCALE
  5
66
102
{ACAD_REACTORS
330
47
102
}
330
47
100
AcDbScale
 70
     0
300
3" = 1'-0"
140
3.0
141
12.0
290
     0
  0
SCALE
  5
67
102
{ACAD_REACTORS
330
47
102
}
330
47
100
AcDbScale
 70
     0
300
6" = 1'-0"
140
6.0
141
12.0
290
     0
  0
SCALE
  5
68
102
{ACAD_REACTORS
330
47
102
}
330
47
100
AcDbScale
 70
     0
300
1'-0" = 1'-0"
140
12.0
141
12.0
290
     0
  0
TABLESTYLE
  5
6A
102
{ACAD_REACTORS
330
69
102
}
102
{ACAD_XDICTIONARY
360
2E7
102
}
330
69
100
AcDbTableStyle
  3
Standard
 70
     0
 71
     0
 40
0.06
 41
0.06
280
     0
281
     0
  7
Standard
140
4.5
170
     2
 62
     0
 63
   257
283
     0
274
    -2
284
     1
 64
     0
275
    -2
285
     1
 65
     0
276
    -2
286
     1
 66
     0
277
    -2
287
     1
 67
     0
278
    -2
288
     1
 68
     0
279
    -2
289
     1
 69
     0
  7
Standard
140
6.0
170
     5
 62
     0
 63
   257
283
     0
274
    -2
284
     1
 64
     0
275
    -2
285
     1
 65
     0
276
    -2
286
     1
 66
     0
277
    -2
287
     1
 67
     0
278
    -2
288
     1
 68
     0
279
    -2
289
     1
 69
     0
  7
Standard
140
4.5
170
     5
 62
     0
 63
   257
283
     0
274
    -2
284
     1
 64
     0
275
    -2
285
     1
 65
     0
276
    -2
286
     1
 66
     0
277
    -2
287
     1
 67
     0
278
    -2
288
     1
 68
     0
279
    -2
289
     1
 69
     0
  0
VISUALSTYLE
  5
2F
102
{ACAD_REACTORS
330
2A
102
}
102
{ACAD_XDICTIONARY
360
2B9
102
}
330
2A
100
AcDbVisualStyle
  2
2dWireframe
 70
     4
 71
     0
 72
     2
 73
     0
 90
        0
 40
0.6
 41
30.0
 62
     5
 63
     7
421
 16777215
 74
     1
 91
        4
 64
     7
 65
   257
 75
     1
175
     1
 42
1.0
 92
        0
 66
   257
 43
1.0
 76
     1
 77
     6
 78
     2
 67
     7
 79
     5
170
     0
171
     0
290
     0
174
     0
 93
        1
 44
0.0
173
     0
291
     0
 45
0.0
1001
ACAD
1000
AcDbSavedByObjectVersion
1070
     0
  0
VISUALSTYLE
  5
32
102
{ACAD_REACTORS
330
2A
102
}
102
{ACAD_XDICTIONARY
360
2BF
102
}
330
2A
100
AcDbVisualStyle
  2
Basic
 70
     7
 71
     1
 72
     0
 73
     1
 90
        0
 40
0.6
 41
30.0
 62
     5
 63
     7
421
 16777215
 74
     0
 91
        4
 64
     7
 65
   257
 75
     1
175
     1
 42
1.0
 92
        8
 66
     7
 43
1.0
 76
     1
 77
     6
 78
     2
 67
     7
 79
     5
170
     0
171
     0
290
     0
174
     0
 93
        1
 44
0.0
173
     0
291
     1
 45
0.0
1001
ACAD
1000
AcDbSavedByObjectVersion
1070
     0
  0
VISUALSTYLE
  5
36
102
{ACAD_REACTORS
330
2A
102
}
102
{ACAD_XDICTIONARY
360
2C7
102
}
330
2A
100
AcDbVisualStyle
  2
Brighten
 70
    12
 71
     2
 72
     2
 73
     0
 90
        0
 40
0.6
 41
30.0
 62
     5
 63
     7
421
 16777215
 74
     1
 91
        4
 64
     7
 65
   257
 75
     1
175
     1
 42
1.0
 92
        8
 66
     7
 43
1.0
 76
     1
 77
     6
 78
     2
 67
     7
 79
     5
170
     0
171
     0
290
     0
174
     0
 93
        1
 44
50.0
173
     0
291
     1
 45
0.0
1001
ACAD
1000
AcDbSavedByObjectVersion
1070
     0
  0
VISUALSTYLE
  5
3A
102
{ACAD_REACTORS
330
2A
102
}
102
{ACAD_XDICTIONARY
360
2CF
102
}
330
2A
100
AcDbVisualStyle
  2
ColorChange
 70
    16
 71
     2
 72
     2
 73
     3
 90
        0
 40
0.6
 41
30.0
 62
     5
 63
     8
421
  8421504
 74
     1
 91
        4
 64
     7
 65
   257
 75
     1
175
     1
 42
1.0
 92
        8
 66
     8
424
  8421504
 43
1.0
 76
     1
 77
     6
 78
     2
 67
     7
 79
     5
170
     0
171
     0
290
     0
174
     0
 93
        1
 44
0.0
173
     0
291
     1
 45
0.0
1001
ACAD
1000
AcDbSavedByObjectVersion
1070
     0
  0
VISUALSTYLE
  5
34
102
{ACAD_REACTORS
330
2A
102
}
102
{ACAD_XDICTIONARY
360
2C3
102
}
330
2A
100
AcDbVisualStyle
  2
Conceptual
 70
     9
 71
     3
 72
     2
 73
     0
 90
        0
 40
0.6
 41
30.0
 62
     5
 63
     7
421
 16777215
 74
     2
 91
        2
 64
     7
 65
   257
 75
     1
175
     1
 42
179.0
 92
        8
 66
     7
 43
1.0
 76
     1
 77
     6
 78
     2
 67
     7
 79
     3
170
     0
171
     0
290
     0
174
     0
 93
        1
 44
0.0
173
     0
291
     0
 45
0.0
1001
ACAD
1000
AcDbSavedByObjectVersion
1070
     0
  0
VISUALSTYLE
  5
35
102
{ACAD_REACTORS
330
2A
102
}
102
{ACAD_XDICTIONARY
360
2C5
102
}
330
2A
100
AcDbVisualStyle
  2
Dim
 70
    11
 71
     2
 72
     2
 73
     0
 90
        0
 40
0.6
 41
30.0
 62
     5
 63
     7
421
 16777215
 74
     1
 91
        4
 64
     7
 65
   257
 75
     1
175
     1
 42
1.0
 92
        8
 66
     7
 43
1.0
 76
     1
 77
     6
 78
     2
 67
     7
 79
     5
170
     0
171
     0
290
     0
174
     0
 93
        1
 44
-50.0
173
     0
291
     1
 45
0.0
1001
ACAD
1000
AcDbSavedByObjectVersion
1070
     0
  0
VISUALSTYLE
  5
3D
102
{ACAD_REACTORS
330
2A
102
}
102
{ACAD_XDICTIONARY
360
2D5
102
}
330
2A
100
AcDbVisualStyle
  2
EdgeColorOff
 70
    22
 71
     2
 72
     2
 73
     0
 90
        0
 40
0.6
 41
30.0
 62
     5
 63
     7
421
 16777215
 74
     1
 91
        4
 64
     7
 65
   257
 75
     1
175
     1
 42
1.0
 92
        8
 66
     7
 43
1.0
 76
     1
 77
     6
 78
     2
 67
     7
 79
     5
170
     0
171
     0
290
     0
174
     0
 93
        1
 44
0.0
173
     0
291
     1
 45
0.0
1001
ACAD
1000
AcDbSavedByObjectVersion
1070
     0
  0
VISUALSTYLE
  5
39
102
{ACAD_REACTORS
330
2A
102
}
102
{ACAD_XDICTIONARY
360
2CD
102
}
330
2A
100
AcDbVisualStyle
  2
Facepattern
 70
    15
 71
     2
 72
     2
 73
     0
 90
        0
 40
0.6
 41
30.0
 62
     5
 63
     7
421
 16777215
 74
     1
 91
        4
 64
     7
 65
   257
 75
     1
175
     1
 42
1.0
 92
        8
 66
     7
 43
1.0
 76
     1
 77
     6
 78
     2
 67
     7
 79
     5
170
     0
171
     0
290
     0
174
     0
 93
        1
 44
0.0
173
     0
291
     1
 45
0.0
1001
ACAD
1000
AcDbSavedByObjectVersion
1070
     0
  0
VISUALSTYLE
  5
2B
102
{ACAD_REACTORS
330
2A
102
}
102
{ACAD_XDICTIONARY
360
2B1
102
}
330
2A
100
AcDbVisualStyle
  2
Flat
 70
     0
 71
     2
 72
     1
 73
     1
 90
        2
 40
0.6
 41
30.0
 62
     5
 63
     7
421
 16777215
 74
     0
 91
        0
 64
     7
 65
   257
 75
     1
175
     1
 42
1.0
 92
        8
 66
     7
 43
1.0
 76
     1
 77
     6
 78
     2
 67
     7
 79
     5
170
     0
171
     0
290
     0
174
     0
 93
       13
 44
0.0
173
     0
291
     1
 45
0.0
1001
ACAD
1000
AcDbSavedByObjectVersion
1070
     0
  0
VISUALSTYLE
  5
2C
102
{ACAD_REACTORS
330
2A
102
}
102
{ACAD_XDICTIONARY
360
2B3
102
}
330
2A
100
AcDbVisualStyle
  2
FlatWithEdges
 70
     1
 71
     2
 72
     1
 73
     1
 90
        2
 40
0.6
 41
30.0
 62
     5
 63
     7
421
 16777215
 74
     1
 91
        0
 64
     7
 65
   257
 75
     1
175
     1
 42
1.0
 92
        0
 66
   257
 43
1.0
 76
     1
 77
     6
 78
     2
 67
     7
 79
     5
170
     0
171
     0
290
     0
174
     0
 93
       13
 44
0.0
173
     0
291
     1
 45
0.0
1001
ACAD
1000
AcDbSavedByObjectVersion
1070
     0
  0
VISUALSTYLE
  5
2D
102
{ACAD_REACTORS
330
2A
102
}
102
{ACAD_XDICTIONARY
360
2B5
102
}
330
2A
100
AcDbVisualStyle
  2
Gouraud
 70
     2
 71
     2
 72
     2
 73
     1
 90
        2
 40
0.6
 41
30.0
 62
     5
 63
     7
421
 16777215
 74
     0
 91
        0
 64
     7
 65
   257
 75
     1
175
     1
 42
1.0
 92
        0
 66
     7
 43
1.0
 76
     1
 77
     6
 78
     2
 67
     7
 79
     5
170
     0
171
     0
290
     0
174
     0
 93
       13
 44
0.0
173
     0
291
     1
 45
0.0
1001
ACAD
1000
AcDbSavedByObjectVersion
1070
     0
  0
VISUALSTYLE
  5
2E
102
{ACAD_REACTORS
330
2A
102
}
102
{ACAD_XDICTIONARY
360
2B7
102
}
330
2A
100
AcDbVisualStyle
  2
GouraudWithEdges
 70
     3
 71
     2
 72
     2
 73
     1
 90
        2
 40
0.6
 41
30.0
 62
     5
 63
     7
421
 16777215
 74
     1
 91
        0
 64
     7
 65
   257
 75
     1
175
     1
 42
1.0
 92
        0
 66
   257
 43
1.0
 76
     1
 77
     6
 78
     2
 67
     7
 79
     5
170
     0
171
     0
290
     0
174
     0
 93
       13
 44
0.0
173
     0
291
     1
 45
0.0
1001
ACAD
1000
AcDbSavedByObjectVersion
1070
     0
  0
VISUALSTYLE
  5
31
102
{ACAD_REACTORS
330
2A
102
}
102
{ACAD_XDICTIONARY
360
2BD
102
}
330
2A
100
AcDbVisualStyle
  2
Hidden
 70
     6
 71
     1
 72
     2
 73
     2
 90
        0
 40
0.6
 41
30.0
 62
     5
 63
     7
421
 16777215
 74
     2
 91
        2
 64
     7
 65
   257
 75
     2
175
     1
 42
40.0
 92
        0
 66
   257
 43
1.0
 76
     1
 77
     6
 78
     2
 67
     7
 79
     3
170
     0
171
     0
290
     0
174
     0
 93
        1
 44
0.0
173
     0
291
     0
 45
0.0
1001
ACAD
1000
AcDbSavedByObjectVersion
1070
     0
  0
VISUALSTYLE
  5
3B
102
{ACAD_REACTORS
330
2A
102
}
102
{ACAD_XDICTIONARY
360
2D1
102
}
330
2A
100
AcDbVisualStyle
  2
JitterOff
 70
    20
 71
     2
 72
     2
 73
     0
 90
        0
 40
0.6
 41
30.0
 62
     5
 63
     7
421
 16777215
 74
     1
 91
        4
 64
     7
 65
   257
 75
     1
175
     1
 42
1.0
 92
       10
 66
     7
 43
1.0
 76
     1
 77
     6
 78
     2
 67
     7
 79
     5
170
     0
171
     0
290
     0
174
     0
 93
        1
 44
0.0
173
     0
291
     1
 45
0.0
1001
ACAD
1000
AcDbSavedByObjectVersion
1070
     0
  0
VISUALSTYLE
  5
38
102
{ACAD_REACTORS
330
2A
102
}
102
{ACAD_XDICTIONARY
360
2CB
102
}
330
2A
100
AcDbVisualStyle
  2
Linepattern
 70
    14
 71
     2
 72
     2
 73
     0
 90
        0
 40
0.6
 41
30.0
 62
     5
 63
     7
421
 16777215
 74
     1
 91
        4
 64
     7
 65
   257
 75
     7
175
     7
 42
1.0
 92
        8
 66
     7
 43
1.0
 76
     1
 77
     6
 78
     2
 67
     7
 79
     5
170
     0
171
     0
290
     0
174
     0
 93
        1
 44
0.0
173
     0
291
     1
 45
0.0
1001
ACAD
1000
AcDbSavedByObjectVersion
1070
     0
  0
VISUALSTYLE
  5
3C
102
{ACAD_REACTORS
330
2A
102
}
102
{ACAD_XDICTIONARY
360
2D3
102
}
330
2A
100
AcDbVisualStyle
  2
OverhangOff
 70
    21
 71
     2
 72
     2
 73
     0
 90
        0
 40
0.6
 41
30.0
 62
     5
 63
     7
421
 16777215
 74
     1
 91
        4
 64
     7
 65
   257
 75
     1
175
     1
 42
1.0
 92
        9
 66
     7
 43
1.0
 76
     1
 77
     6
 78
     2
 67
     7
 79
     5
170
     0
171
     0
290
     0
174
     0
 93
        1
 44
0.0
173
     0
291
     1
 45
0.0
1001
ACAD
1000
AcDbSavedByObjectVersion
1070
     0
  0
VISUALSTYLE
  5
33
102
{ACAD_REACTORS
330
2A
102
}
102
{ACAD_XDICTIONARY
360
2C1
102
}
330
2A
100
AcDbVisualStyle
  2
Realistic
 70
     8
 71
     2
 72
     3
 73
     0
 90
        2
 40
0.6
 41
30.0
 62
     5
 63
     7
421
 16777215
 74
     0
 91
        0
 64
     7
 65
   257
 75
     1
175
     1
 42
1.0
 92
        8
 66
   257
 43
1.0
 76
     1
 77
     6
 78
     2
 67
     7
 79
     3
170
     0
171
     0
290
     0
174
     0
 93
       13
 44
0.0
173
     0
291
     0
 45
0.0
1001
ACAD
1000
AcDbSavedByObjectVersion
1070
     0
  0
VISUALSTYLE
  5
42
102
{ACAD_REACTORS
330
2A
102
}
102
{ACAD_XDICTIONARY
360
2DF
102
}
330
2A
100
AcDbVisualStyle
  2
Shaded
 70
    27
 71
     2
 72
     2
 73
     1
 90
        2
 40
0.6
 41
30.0
 62
     5
 63
     7
421
 16777215
 74
     0
 91
        4
 64
     7
 65
   257
 75
     1
175
     1
 42
1.0
 92
        8
 66
   257
 43
1.0
 76
     1
 77
     6
 78
     2
 67
     8
425
  7895160
 79
     3
170
     0
171
     0
290
     0
174
     0
 93
        5
 44
0.0
173
     0
291
     0
 45
0.0
1001
ACAD
1000
AcDbSavedByObjectVersion
1070
     0
  0
VISUALSTYLE
  5
41
102
{ACAD_REACTORS
330
2A
102
}
102
{ACAD_XDICTIONARY
360
2DD
102
}
330
2A
100
AcDbVisualStyle
  2
Shaded with edges
 70
    26
 71
     2
 72
     2
 73
     1
 90
        2
 40
0.6
 41
30.0
 62
     5
 63
     7
421
 16777215
 74
     1
 91
       10
 64
     7
 65
   257
 75
     2
175
     1
 42
1.0
 92
        8
 66
   257
 43
1.0
 76
     1
 77
     6
 78
     2
 67
     7
 79
     3
170
     0
171
     0
290
     0
174
     0
 93
        5
 44
0.0
173
     0
291
     0
 45
0.0
1001
ACAD
1000
AcDbSavedByObjectVersion
1070
     0
  0
VISUALSTYLE
  5
3E
102
{ACAD_REACTORS
330
2A
102
}
102
{ACAD_XDICTIONARY
360
2D7
102
}
330
2A
100
AcDbVisualStyle
  2
Shades of Gray
 70
    23
 71
     2
 72
     2
 73
     3
 90
        0
 40
0.6
 41
30.0
 62
     5
 63
     7
421
 16777215
 74
     2
 91
        2
 64
     7
 65
     7
 75
     1
175
     1
 42
40.0
 92
        8
 66
     7
 43
1.0
 76
     1
 77
     6
 78
     2
 67
     7
 79
     3
170
     0
171
     0
290
     0
174
     0
 93
        1
 44
0.0
173
     0
291
     0
 45
0.0
1001
ACAD
1000
AcDbSavedByObjectVersion
1070
     0
  0
VISUALSTYLE
  5
3F
102
{ACAD_REACTORS
330
2A
102
}
102
{ACAD_XDICTIONARY
360
2D9
102
}
330
2A
100
AcDbVisualStyle
  2
Sketchy
 70
    24
 71
     1
 72
     2
 73
     2
 90
        0
 40
0.6
 41
30.0
 62
     5
 63
     7
421
 16777215
 74
     2
 91
        2
 64
     7
 65
     7
 75
     1
175
     1
 42
40.0
 92
       11
 66
     7
 43
1.0
 76
     1
 77
     6
 78
     2
 67
     7
 79
     6
170
     0
171
     0
290
     0
174
     0
 93
        1
 44
0.0
173
     0
291
     0
 45
0.0
1001
ACAD
1000
AcDbSavedByObjectVersion
1070
     0
  0
VISUALSTYLE
  5
37
102
{ACAD_REACTORS
330
2A
102
}
102
{ACAD_XDICTIONARY
360
2C9
102
}
330
2A
100
AcDbVisualStyle
  2
Thicken
 70
    13
 71
     2
 72
     2
 73
     0
 90
        0
 40
0.6
 41
30.0
 62
     5
 63
     7
421
 16777215
 74
     1
 91
        4
 64
     7
 65
   257
 75
     1
175
     1
 42
1.0
 92
       12
 66
     7
 43
1.0
 76
     1
 77
     6
 78
     2
 67
     7
 79
     5
170
     0
171
     0
290
     0
174
     0
 93
        1
 44
0.0
173
     0
291
     1
 45
0.0
1001
ACAD
1000
AcDbSavedByObjectVersion
1070
     0
  0
VISUALSTYLE
  5
30
102
{ACAD_REACTORS
330
2A
102
}
102
{ACAD_XDICTIONARY
360
2BB
102
}
330
2A
100
AcDbVisualStyle
  2
Wireframe
 70
     5
 71
     0
 72
     2
 73
     0
 90
        0
 40
0.6
 41
30.0
 62
     5
 63
     7
421
 16777215
 74
     1
 91
        4
 64
     7
 65
   257
 75
     1
175
     1
 42
1.0
 92
        0
 66
   257
 43
1.0
 76
     1
 77
     6
 78
     2
 67
     7
 79
     3
170
     0
171
     0
290
     0
174
     0
 93
        1
 44
0.0
173
     0
291
     0
 45
0.0
1001
ACAD
1000
AcDbSavedByObjectVersion
1070
     0
  0
VISUALSTYLE
  5
40
102
{ACAD_REACTORS
330
2A
102
}
102
{ACAD_XDICTIONARY
360
2DB
102
}
330
2A
100
AcDbVisualStyle
  2
X-Ray
 70
    25
 71
     2
 72
     2
 73
     1
 90
        1
 40
0.5
 41
30.0
 62
     5
 63
     7
421
 16777215
 74
     1
 91
        0
 64
     7
 65
   257
 75
     1
175
     1
 42
1.0
 92
        8
 66
     7
 43
1.0
 76
     1
 77
     6
 78
     2
 67
     7
 79
     3
170
     0
171
     0
290
     0
174
     0
 93
       13
 44
0.0
173
     0
291
     0
 45
0.0
1001
ACAD
1000
AcDbSavedByObjectVersion
1070
     0
  0
DICTIONARYVAR
  5
2AE
102
{ACAD_REACTORS
330
2AD
102
}
330
2AD
100
DictionaryVariables
280
     0
  1
1:1
  0
DICTIONARYVAR
  5
2EF
102
{ACAD_REACTORS
330
2AD
102
}
330
2AD
100
DictionaryVariables
280
     0
  1
Standard
  0
DICTIONARYVAR
  5
2EE
102
{ACAD_REACTORS
330
2AD
102
}
330
2AD
100
DictionaryVariables
280
     0
  1
Standard
  0
DICTIONARYVAR
  5
2AF
102
{ACAD_REACTORS
330
2AD
102
}
330
2AD
100
DictionaryVariables
280
     0
  1
1
  0
DICTIONARYVAR
  5
2B0
102
{ACAD_REACTORS
330
2AD
102
}
330
2AD
100
DictionaryVariables
280
     0
  1
2
  0
DICTIONARY
  5
2E3
330
45
100
AcDbDictionary
280
     1
281
     1
  3
ACAD_XREC_ROUNDTRIP
360
2E4
  0
DICTIONARY
  5
2E1
330
44
100
AcDbDictionary
280
     1
281
     1
  3
ACAD_XREC_ROUNDTRIP
360
2E2
  0
DICTIONARY
  5
2E5
330
46
100
AcDbDictionary
280
     1
281
     1
  3
ACAD_XREC_ROUNDTRIP
360
2E6
  0
DICTIONARY
  5
2EB
330
6C
100
AcDbDictionary
280
     1
281
     1
  3
ACAD_XREC_ROUNDTRIP
360
2EC
  0
DICTIONARY
  5
2E7
330
6A
100
AcDbDictionary
280
     1
281
     1
  3
ACAD_ROUNDTRIP_2008_TABLESTYLE_CELLSTYLEMAP
360
2E9
  3
ACAD_XREC_ROUNDTRIP
360
2E8
  0
DICTIONARY
  5
2B9
330
2F
100
AcDbDictionary
280
     1
281
     1
  3
ACAD_XREC_ROUNDTRIP
360
2BA
  0
DICTIONARY
  5
2BF
330
32
100
AcDbDictionary
280
     1
281
     1
  3
ACAD_XREC_ROUNDTRIP
360
2C0
  0
DICTIONARY
  5
2C7
330
36
100
AcDbDictionary
280
     1
281
     1
  3
ACAD_XREC_ROUNDTRIP
360
2C8
  0
DICTIONARY
  5
2CF
330
3A
100
AcDbDictionary
280
     1
281
     1
  3
ACAD_XREC_ROUNDTRIP
360
2D0
  0
DICTIONARY
  5
2C3
330
34
100
AcDbDictionary
280
     1
281
     1
  3
ACAD_XREC_ROUNDTRIP
360
2C4
  0
DICTIONARY
  5
2C5
330
35
100
AcDbDictionary
280
     1
281
     1
  3
ACAD_XREC_ROUNDTRIP
360
2C6
  0
DICTIONARY
  5
2D5
330
3D
100
AcDbDictionary
280
     1
281
     1
  3
ACAD_XREC_ROUNDTRIP
360
2D6
  0
DICTIONARY
  5
2CD
330
39
100
AcDbDictionary
280
     1
281
     1
  3
ACAD_XREC_ROUNDTRIP
360
2CE
  0
DICTIONARY
  5
2B1
330
2B
100
AcDbDictionary
280
     1
281
     1
  3
ACAD_XREC_ROUNDTRIP
360
2B2
  0
DICTIONARY
  5
2B3
330
2C
100
AcDbDictionary
280
     1
281
     1
  3
ACAD_XREC_ROUNDTRIP
360
2B4
  0
DICTIONARY
  5
2B5
330
2D
100
AcDbDictionary
280
     1
281
     1
  3
ACAD_XREC_ROUNDTRIP
360
2B6
  0
DICTIONARY
  5
2B7
330
2E
100
AcDbDictionary
280
     1
281
     1
  3
ACAD_XREC_ROUNDTRIP
360
2B8
  0
DICTIONARY
  5
2BD
330
31
100
AcDbDictionary
280
     1
281
     1
  3
ACAD_XREC_ROUNDTRIP
360
2BE
  0
DICTIONARY
  5
2D1
330
3B
100
AcDbDictionary
280
     1
281
     1
  3
ACAD_XREC_ROUNDTRIP
360
2D2
  0
DICTIONARY
  5
2CB
330
38
100
AcDbDictionary
280
     1
281
     1
  3
ACAD_XREC_ROUNDTRIP
360
2CC
  0
DICTIONARY
  5
2D3
330
3C
100
AcDbDictionary
280
     1
281
     1
  3
ACAD_XREC_ROUNDTRIP
360
2D4
  0
DICTIONARY
  5
2C1
330
33
100
AcDbDictionary
280
     1
281
     1
  3
ACAD_XREC_ROUNDTRIP
360
2C2
  0
DICTIONARY
  5
2DF
330
42
100
AcDbDictionary
280
     1
281
     1
  3
ACAD_XREC_ROUNDTRIP
360
2E0
  0
DICTIONARY
  5
2DD
330
41
100
AcDbDictionary
280
     1
281
     1
  3
ACAD_XREC_ROUNDTRIP
360
2DE
  0
DICTIONARY
  5
2D7
330
3E
100
AcDbDictionary
280
     1
281
     1
  3
ACAD_XREC_ROUNDTRIP
360
2D8
  0
DICTIONARY
  5
2D9
330
3F
100
AcDbDictionary
280
     1
281
     1
  3
ACAD_XREC_ROUNDTRIP
360
2DA
  0
DICTIONARY
  5
2C9
330
37
100
AcDbDictionary
280
     1
281
     1
  3
ACAD_XREC_ROUNDTRIP
360
2CA
  0
DICTIONARY
  5
2BB
330
30
100
AcDbDictionary
280
     1
281
     1
  3
ACAD_XREC_ROUNDTRIP
360
2BC
  0
DICTIONARY
  5
2DB
330
40
100
AcDbDictionary
280
     1
281
     1
  3
ACAD_XREC_ROUNDTRIP
360
2DC
  0
XRECORD
  5
2E4
102
{ACAD_REACTORS
330
2E3
102
}
330
2E3
100
AcDbXrecord
280
     1
102
MATERIAL
148
0.0
149
0.0
149
0.0
 93
        0
 94
      127
282
     0
 72
     1
 77
     1
171
     1
175
     1
179
     1
273
     0
  0
XRECORD
  5
2E2
102
{ACAD_REACTORS
330
2E1
102
}
330
2E1
100
AcDbXrecord
280
     1
102
MATERIAL
148
0.0
149
0.0
149
0.0
 93
        0
 94
      127
282
     0
 72
     1
 77
     1
171
     1
175
     1
179
     1
273
     0
  0
XRECORD
  5
2E6
102
{ACAD_REACTORS
330
2E5
102
}
330
2E5
100
AcDbXrecord
280
     1
102
MATERIAL
148
0.0
149
0.0
149
0.0
 93
        0
 94
      127
282
     0
 72
     1
 77
     1
171
     1
175
     1
179
     1
273
     0
  0
XRECORD
  5
2EC
102
{ACAD_REACTORS
330
2EB
102
}
330
2EB
100
AcDbXrecord
280
     1
102
ACAD_ROUNDTRIP_2010_MLEADER_STYLE
  0
CELLSTYLEMAP
  5
2E9
102
{ACAD_REACTORS
330
2E7
102
}
330
2E7
100
AcDbCellStyleMap
 90
        3
300
CELLSTYLE
  1
TABLEFORMAT_BEGIN
 90
        5
170
     1
 91
        0
 92
    32768
 62
   257
 93
        1
300
CONTENTFORMAT
  1
CONTENTFORMAT_BEGIN
 90
        0
 91
        0
 92
        4
 93
        0
300

 40
0.0
140
1.0
 94
        5
 62
     0
340
11
144
6.0
309
CONTENTFORMAT_END
171
     1
301
MARGIN
  1
CELLMARGIN_BEGIN
 40
1.5
 40
1.5
 40
1.5
 40
1.5
 40
1.5
 40
1.5
309
CELLMARGIN_END
 94
        6
 95
        1
302
GRIDFORMAT
  1
GRIDFORMAT_BEGIN
 90
        0
 91
        1
 62
     0
 92
       -2
340
14
 93
        0
 40
0.045
309
GRIDFORMAT_END
 95
        2
302
GRIDFORMAT
  1
GRIDFORMAT_BEGIN
 90
        0
 91
        1
 62
     0
 92
       -2
340
14
 93
        0
 40
0.045
309
GRIDFORMAT_END
 95
        4
302
GRIDFORMAT
  1
GRIDFORMAT_BEGIN
 90
        0
 91
        1
 62
     0
 92
       -2
340
14
 93
        0
 40
0.045
309
GRIDFORMAT_END
 95
        8
302
GRIDFORMAT
  1
GRIDFORMAT_BEGIN
 90
        0
 91
        1
 62
     0
 92
       -2
340
14
 93
        0
 40
0.045
309
GRIDFORMAT_END
 95
       16
302
GRIDFORMAT
  1
GRIDFORMAT_BEGIN
 90
        0
 91
        1
 62
     0
 92
       -2
340
14
 93
        0
 40
0.045
309
GRIDFORMAT_END
 95
       32
302
GRIDFORMAT
  1
GRIDFORMAT_BEGIN
 90
        0
 91
        1
 62
     0
 92
       -2
340
14
 93
        0
 40
0.045
309
GRIDFORMAT_END
309
TABLEFORMAT_END
  1
CELLSTYLE_BEGIN
 90
        1
 91
        1
300
_TITLE
309
CELLSTYLE_END
300
CELLSTYLE
  1
TABLEFORMAT_BEGIN
 90
        5
170
     1
 91
        0
 92
        0
 62
   257
 93
        1
300
CONTENTFORMAT
  1
CONTENTFORMAT_BEGIN
 90
        0
 91
        0
 92
        4
 93
        0
300

 40
0.0
140
1.0
 94
        5
 62
     0
340
11
144
4.5
309
CONTENTFORMAT_END
171
     1
301
MARGIN
  1
CELLMARGIN_BEGIN
 40
1.5
 40
1.5
 40
1.5
 40
1.5
 40
1.5
 40
1.5
309
CELLMARGIN_END
 94
        6
 95
        1
302
GRIDFORMAT
  1
GRIDFORMAT_BEGIN
 90
        0
 91
        1
 62
     0
 92
       -2
340
14
 93
        0
 40
0.045
309
GRIDFORMAT_END
 95
        2
302
GRIDFORMAT
  1
GRIDFORMAT_BEGIN
 90
        0
 91
        1
 62
     0
 92
       -2
340
14
 93
        0
 40
0.045
309
GRIDFORMAT_END
 95
        4
302
GRIDFORMAT
  1
GRIDFORMAT_BEGIN
 90
        0
 91
        1
 62
     0
 92
       -2
340
14
 93
        0
 40
0.045
309
GRIDFORMAT_END
 95
        8
302
GRIDFORMAT
  1
GRIDFORMAT_BEGIN
 90
        0
 91
        1
 62
     0
 92
       -2
340
14
 93
        0
 40
0.045
309
GRIDFORMAT_END
 95
       16
302
GRIDFORMAT
  1
GRIDFORMAT_BEGIN
 90
        0
 91
        1
 62
     0
 92
       -2
340
14
 93
        0
 40
0.045
309
GRIDFORMAT_END
 95
       32
302
GRIDFORMAT
  1
GRIDFORMAT_BEGIN
 90
        0
 91
        1
 62
     0
 92
       -2
340
14
 93
        0
 40
0.045
309
GRIDFORMAT_END
309
TABLEFORMAT_END
  1
CELLSTYLE_BEGIN
 90
        2
 91
        1
300
_HEADER
309
CELLSTYLE_END
300
CELLSTYLE
  1
TABLEFORMAT_BEGIN
 90
        5
170
     1
 91
        0
 92
        0
 62
   257
 93
        1
300
CONTENTFORMAT
  1
CONTENTFORMAT_BEGIN
 90
        0
 91
        0
 92
        4
 93
        0
300

 40
0.0
140
1.0
 94
        2
 62
     0
340
11
144
4.5
309
CONTENTFORMAT_END
171
     1
301
MARGIN
  1
CELLMARGIN_BEGIN
 40
1.5
 40
1.5
 40
1.5
 40
1.5
 40
1.5
 40
1.5
309
CELLMARGIN_END
 94
        6
 95
        1
302
GRIDFORMAT
  1
GRIDFORMAT_BEGIN
 90
        0
 91
        1
 62
     0
 92
       -2
340
14
 93
        0
 40
0.045
309
GRIDFORMAT_END
 95
        2
302
GRIDFORMAT
  1
GRIDFORMAT_BEGIN
 90
        0
 91
        1
 62
     0
 92
       -2
340
14
 93
        0
 40
0.045
309
GRIDFORMAT_END
 95
        4
302
GRIDFORMAT
  1
GRIDFORMAT_BEGIN
 90
        0
 91
        1
 62
     0
 92
       -2
340
14
 93
        0
 40
0.045
309
GRIDFORMAT_END
 95
        8
302
GRIDFORMAT
  1
GRIDFORMAT_BEGIN
 90
        0
 91
        1
 62
     0
 92
       -2
340
14
 93
        0
 40
0.045
309
GRIDFORMAT_END
 95
       16
302
GRIDFORMAT
  1
GRIDFORMAT_BEGIN
 90
        0
 91
        1
 62
     0
 92
       -2
340
14
 93
        0
 40
0.045
309
GRIDFORMAT_END
 95
       32
302
GRIDFORMAT
  1
GRIDFORMAT_BEGIN
 90
        0
 91
        1
 62
     0
 92
       -2
340
14
 93
        0
 40
0.045
309
GRIDFORMAT_END
309
TABLEFORMAT_END
  1
CELLSTYLE_BEGIN
 90
        3
 91
        2
300
_DATA
309
CELLSTYLE_END
  0
XRECORD
  5
2E8
102
{ACAD_REACTORS
330
2E7
102
}
330
2E7
100
AcDbXrecord
280
     1
102
ACAD_ROUNDTRIP_PRE2007_TABLESTYLE
 90
        4
 91
        0
  1

 92
        4
 93
        0
  2

 94
        4
 95
        0
  3

  0
XRECORD
  5
2BA
102
{ACAD_REACTORS
330
2B9
102
}
330
2B9
100
AcDbXrecord
280
     1
102
RTVSPropertyOp0
 70
     1
102
RTVSPropertyOp1
 70
     1
102
RTVSPropertyOp2
 70
     1
102
RTVSPropertyOp3
 70
     1
102
RTVSPropertyOp4
 70
     1
102
RTVSPropertyOp5
 70
     1
102
RTVSPropertyOp6
 70
     1
102
RTVSPropertyOp7
 70
     1
102
RTVSPropertyOp8
 70
     1
102
RTVSPropertyOp9
 70
     1
102
RTVSPropertyOp10
 70
     1
102
RTVSPropertyOp11
 70
     1
102
RTVSPropertyOp12
 70
     1
102
RTVSPropertyOp13
 70
     1
102
RTVSPropertyOp14
 70
     1
102
RTVSPropertyOp15
 70
     1
102
RTVSPropertyOp16
 70
     1
102
RTVSPropertyOp17
 70
     1
102
RTVSPropertyOp18
 70
     1
102
RTVSPropertyOp19
 70
     1
102
RTVSPropertyOp20
 70
     1
102
RTVSPropertyOp21
 70
     1
102
RTVSPropertyOp22
 70
     1
102
RTVSPropertyOp23
 70
     1
102
RTVSPropertyOp24
 70
     1
102
RTVSPropertyOp25
 70
     1
102
RTVSPropertyOp26
 70
     1
102
RTVSPropertyOp27
 70
     1
102
RTVSPropertyOp28
 70
     1
102
RTVSPropertyOp29
 70
     1
102
RTVSPropertyOp30
 70
     1
102
RTVSPropertyOp31
 70
     1
102
RTVSPropertyOp32
 70
     1
102
RTVSPropertyOp33
 70
     1
102
RTVSPropertyOp34
 70
     1
102
RTVSPropertyOp35
 70
     1
102
RTVSPropertyOp36
 70
     1
102
RTVSPropertyOp37
 70
     1
102
RTVSPropertyOp38
 70
     1
102
RTVSPropertyOp39
 70
     1
102
RTVSPropertyOp40
 70
     1
102
RTVSPropertyOp41
 70
     1
102
RTVSPropertyOp42
 70
     1
102
RTVSPropertyOp43
 70
     1
102
RTVSPropertyOp44
 70
     1
102
RTVSPropertyOp45
 70
     1
102
RTVSPropertyOp46
 70
     1
102
RTVSPropertyOp47
 70
     1
102
RTVSPropertyOp48
 70
     1
102
RTVSPropertyOp49
 70
     1
102
RTVSPropertyOp50
 70
     1
102
RTVSPropertyOp51
 70
     0
102
RTVSPropertyOp52
 70
     0
102
RTVSPropertyOp53
 70
     1
102
RTVSPropertyOp54
 70
     1
102
RTVSPropertyOp55
 70
     1
102
RTVSPropertyOp56
 70
     1
102
RTVSPropertyOp57
 70
     1
102
RTVSPost2010Prop28
280
     1
102
RTVSPost2010PropOp28
 70
     1
102
RTVSPost2010Prop29
280
     1
102
RTVSPost2010PropOp29
 70
     1
102
RTVSPost2010Prop30
280
     0
102
RTVSPost2010PropOp30
 70
     1
102
RTVSPost2010Prop31
280
     0
102
RTVSPost2010PropOp31
 70
     1
102
RTVSPost2010Prop32
280
     0
102
RTVSPost2010PropOp32
 70
     1
102
RTVSPost2010Prop33
280
     0
102
RTVSPost2010PropOp33
 70
     1
102
RTVSPost2010Prop34
280
     0
102
RTVSPost2010PropOp34
 70
     1
102
RTVSPost2010Prop35
280
     0
102
RTVSPost2010PropOp35
 70
     1
102
RTVSPost2010Prop36
280
     0
102
RTVSPost2010PropOp36
 70
     1
102
RTVSPost2010Prop37
 90
       50
102
RTVSPost2010PropOp37
 70
     1
102
RTVSPost2010Prop38
140
0.0
102
RTVSPost2010PropOp38
 70
     1
102
RTVSPost2010Prop39
140
1.0
102
RTVSPost2010PropOp39
 70
     1
102
RTVSPost2010Prop40
 90
        0
102
RTVSPost2010PropOp40
 70
     1
102
RTVSPost2010Prop41ColorIndex
 90
       18
102
RTVSPost2010Prop41ColorRGB
 90
        0
102
RTVSPost2010PropOp41
 70
     1
102
RTVSPost2010Prop42
 90
       50
102
RTVSPost2010PropOp42
 70
     1
102
RTVSPost2010Prop43
 90
        3
102
RTVSPost2010PropOp43
 70
     1
102
RTVSPost2010Prop44ColorIndex
 90
        5
102
RTVSPost2010Prop44ColorRGB
 90
      255
102
RTVSPost2010PropOp44
 70
     1
102
RTVSPost2010Prop45
280
     0
102
RTVSPost2010PropOp45
 70
     1
102
RTVSPost2010Prop46
 90
       50
102
RTVSPost2010PropOp46
 70
     1
102
RTVSPost2010Prop47
 90
       50
102
RTVSPost2010PropOp47
 70
     1
102
RTVSPost2010Prop48
 90
       50
102
RTVSPost2010PropOp48
 70
     1
102
RTVSPost2010Prop49
280
     0
102
RTVSPost2010PropOp49
 70
     1
102
RTVSPost2010Prop50
 90
       50
102
RTVSPost2010PropOp50
 70
     1
102
RTVSPost2010Prop51ColorIndex
 90
      256
102
RTVSPost2010Prop51ColorRGB
 90
-16777216
102
RTVSPost2010PropOp51
 70
     0
102
RTVSPost2010Prop52
140
1.0
102
RTVSPost2010PropOp52
 70
     0
102
RTVSPost2010Prop53
 90
        2
102
RTVSPost2010PropOp53
 70
     1
102
RTVSPost2010Prop54
  1
strokes_ogs.tif
102
RTVSPost2010PropOp54
 70
     1
102
RTVSPost2010Prop55
280
     0
102
RTVSPost2010PropOp55
 70
     1
102
RTVSPost2010Prop56
140
1.0
102
RTVSPost2010PropOp56
 70
     1
102
RTVSPost2010Prop57
140
1.0
102
RTVSPost2010PropOp57
 70
     1
  0
XRECORD
  5
2C0
102
{ACAD_REACTORS
330
2BF
102
}
330
2BF
100
AcDbXrecord
280
     1
102
RTVSPropertyOp0
 70
     1
102
RTVSPropertyOp1
 70
     1
102
RTVSPropertyOp2
 70
     1
102
RTVSPropertyOp3
 70
     1
102
RTVSPropertyOp4
 70
     1
102
RTVSPropertyOp5
 70
     1
102
RTVSPropertyOp6
 70
     1
102
RTVSPropertyOp7
 70
     1
102
RTVSPropertyOp8
 70
     1
102
RTVSPropertyOp9
 70
     1
102
RTVSPropertyOp10
 70
     1
102
RTVSPropertyOp11
 70
     1
102
RTVSPropertyOp12
 70
     1
102
RTVSPropertyOp13
 70
     1
102
RTVSPropertyOp14
 70
     1
102
RTVSPropertyOp15
 70
     1
102
RTVSPropertyOp16
 70
     1
102
RTVSPropertyOp17
 70
     1
102
RTVSPropertyOp18
 70
     1
102
RTVSPropertyOp19
 70
     1
102
RTVSPropertyOp20
 70
     1
102
RTVSPropertyOp21
 70
     1
102
RTVSPropertyOp22
 70
     1
102
RTVSPropertyOp23
 70
     1
102
RTVSPropertyOp24
 70
     1
102
RTVSPropertyOp25
 70
     1
102
RTVSPropertyOp26
 70
     1
102
RTVSPropertyOp27
 70
     1
102
RTVSPropertyOp28
 70
     1
102
RTVSPropertyOp29
 70
     1
102
RTVSPropertyOp30
 70
     1
102
RTVSPropertyOp31
 70
     1
102
RTVSPropertyOp32
 70
     1
102
RTVSPropertyOp33
 70
     1
102
RTVSPropertyOp34
 70
     1
102
RTVSPropertyOp35
 70
     1
102
RTVSPropertyOp36
 70
     1
102
RTVSPropertyOp37
 70
     1
102
RTVSPropertyOp38
 70
     1
102
RTVSPropertyOp39
 70
     1
102
RTVSPropertyOp40
 70
     1
102
RTVSPropertyOp41
 70
     1
102
RTVSPropertyOp42
 70
     1
102
RTVSPropertyOp43
 70
     1
102
RTVSPropertyOp44
 70
     1
102
RTVSPropertyOp45
 70
     1
102
RTVSPropertyOp46
 70
     1
102
RTVSPropertyOp47
 70
     1
102
RTVSPropertyOp48
 70
     1
102
RTVSPropertyOp49
 70
     1
102
RTVSPropertyOp50
 70
     1
102
RTVSPropertyOp51
 70
     0
102
RTVSPropertyOp52
 70
     0
102
RTVSPropertyOp53
 70
     1
102
RTVSPropertyOp54
 70
     1
102
RTVSPropertyOp55
 70
     1
102
RTVSPropertyOp56
 70
     1
102
RTVSPropertyOp57
 70
     1
102
RTVSPost2010Prop28
280
     0
102
RTVSPost2010PropOp28
 70
     1
102
RTVSPost2010Prop29
280
     1
102
RTVSPost2010PropOp29
 70
     1
102
RTVSPost2010Prop30
280
     1
102
RTVSPost2010PropOp30
 70
     1
102
RTVSPost2010Prop31
280
     0
102
RTVSPost2010PropOp31
 70
     1
102
RTVSPost2010Prop32
280
     0
102
RTVSPost2010PropOp32
 70
     1
102
RTVSPost2010Prop33
280
     0
102
RTVSPost2010PropOp33
 70
     1
102
RTVSPost2010Prop34
280
     0
102
RTVSPost2010PropOp34
 70
     1
102
RTVSPost2010Prop35
280
     0
102
RTVSPost2010PropOp35
 70
     1
102
RTVSPost2010Prop36
280
     0
102
RTVSPost2010PropOp36
 70
     1
102
RTVSPost2010Prop37
 90
       50
102
RTVSPost2010PropOp37
 70
     1
102
RTVSPost2010Prop38
140
0.0
102
RTVSPost2010PropOp38
 70
     1
102
RTVSPost2010Prop39
140
1.0
102
RTVSPost2010PropOp39
 70
     1
102
RTVSPost2010Prop40
 90
        0
102
RTVSPost2010PropOp40
 70
     1
102
RTVSPost2010Prop41ColorIndex
 90
       18
102
RTVSPost2010Prop41ColorRGB
 90
        0
102
RTVSPost2010PropOp41
 70
     1
102
RTVSPost2010Prop42
 90
       50
102
RTVSPost2010PropOp42
 70
     1
102
RTVSPost2010Prop43
 90
        3
102
RTVSPost2010PropOp43
 70
     1
102
RTVSPost2010Prop44ColorIndex
 90
        5
102
RTVSPost2010Prop44ColorRGB
 90
      255
102
RTVSPost2010PropOp44
 70
     1
102
RTVSPost2010Prop45
280
     0
102
RTVSPost2010PropOp45
 70
     1
102
RTVSPost2010Prop46
 90
       50
102
RTVSPost2010PropOp46
 70
     1
102
RTVSPost2010Prop47
 90
       50
102
RTVSPost2010PropOp47
 70
     1
102
RTVSPost2010Prop48
 90
       50
102
RTVSPost2010PropOp48
 70
     1
102
RTVSPost2010Prop49
280
     0
102
RTVSPost2010PropOp49
 70
     1
102
RTVSPost2010Prop50
 90
       50
102
RTVSPost2010PropOp50
 70
     1
102
RTVSPost2010Prop51ColorIndex
 90
      256
102
RTVSPost2010Prop51ColorRGB
 90
-16777216
102
RTVSPost2010PropOp51
 70
     0
102
RTVSPost2010Prop52
140
1.0
102
RTVSPost2010PropOp52
 70
     0
102
RTVSPost2010Prop53
 90
        2
102
RTVSPost2010PropOp53
 70
     1
102
RTVSPost2010Prop54
  1
strokes_ogs.tif
102
RTVSPost2010PropOp54
 70
     1
102
RTVSPost2010Prop55
280
     0
102
RTVSPost2010PropOp55
 70
     1
102
RTVSPost2010Prop56
140
1.0
102
RTVSPost2010PropOp56
 70
     1
102
RTVSPost2010Prop57
140
1.0
102
RTVSPost2010PropOp57
 70
     1
  0
XRECORD
  5
2C8
102
{ACAD_REACTORS
330
2C7
102
}
330
2C7
100
AcDbXrecord
280
     1
102
RTVSPropertyOp0
 70
     1
102
RTVSPropertyOp1
 70
     1
102
RTVSPropertyOp2
 70
     1
102
RTVSPropertyOp3
 70
     1
102
RTVSPropertyOp4
 70
     1
102
RTVSPropertyOp5
 70
     1
102
RTVSPropertyOp6
 70
     1
102
RTVSPropertyOp7
 70
     1
102
RTVSPropertyOp8
 70
     1
102
RTVSPropertyOp9
 70
     1
102
RTVSPropertyOp10
 70
     1
102
RTVSPropertyOp11
 70
     1
102
RTVSPropertyOp12
 70
     1
102
RTVSPropertyOp13
 70
     1
102
RTVSPropertyOp14
 70
     1
102
RTVSPropertyOp15
 70
     1
102
RTVSPropertyOp16
 70
     1
102
RTVSPropertyOp17
 70
     1
102
RTVSPropertyOp18
 70
     1
102
RTVSPropertyOp19
 70
     1
102
RTVSPropertyOp20
 70
     1
102
RTVSPropertyOp21
 70
     1
102
RTVSPropertyOp22
 70
     1
102
RTVSPropertyOp23
 70
     1
102
RTVSPropertyOp24
 70
     1
102
RTVSPropertyOp25
 70
     1
102
RTVSPropertyOp26
 70
     1
102
RTVSPropertyOp27
 70
     1
102
RTVSPropertyOp28
 70
     1
102
RTVSPropertyOp29
 70
     1
102
RTVSPropertyOp30
 70
     1
102
RTVSPropertyOp31
 70
     1
102
RTVSPropertyOp32
 70
     1
102
RTVSPropertyOp33
 70
     1
102
RTVSPropertyOp34
 70
     1
102
RTVSPropertyOp35
 70
     1
102
RTVSPropertyOp36
 70
     1
102
RTVSPropertyOp37
 70
     1
102
RTVSPropertyOp38
 70
     1
102
RTVSPropertyOp39
 70
     1
102
RTVSPropertyOp40
 70
     1
102
RTVSPropertyOp41
 70
     1
102
RTVSPropertyOp42
 70
     1
102
RTVSPropertyOp43
 70
     1
102
RTVSPropertyOp44
 70
     1
102
RTVSPropertyOp45
 70
     1
102
RTVSPropertyOp46
 70
     1
102
RTVSPropertyOp47
 70
     1
102
RTVSPropertyOp48
 70
     1
102
RTVSPropertyOp49
 70
     1
102
RTVSPropertyOp50
 70
     1
102
RTVSPropertyOp51
 70
     0
102
RTVSPropertyOp52
 70
     0
102
RTVSPropertyOp53
 70
     1
102
RTVSPropertyOp54
 70
     1
102
RTVSPropertyOp55
 70
     1
102
RTVSPropertyOp56
 70
     1
102
RTVSPropertyOp57
 70
     1
102
RTVSPost2010Prop28
280
     0
102
RTVSPost2010PropOp28
 70
     1
102
RTVSPost2010Prop29
280
     1
102
RTVSPost2010PropOp29
 70
     1
102
RTVSPost2010Prop30
280
     1
102
RTVSPost2010PropOp30
 70
     1
102
RTVSPost2010Prop31
280
     0
102
RTVSPost2010PropOp31
 70
     1
102
RTVSPost2010Prop32
280
     0
102
RTVSPost2010PropOp32
 70
     1
102
RTVSPost2010Prop33
280
     0
102
RTVSPost2010PropOp33
 70
     1
102
RTVSPost2010Prop34
280
     0
102
RTVSPost2010PropOp34
 70
     1
102
RTVSPost2010Prop35
280
     0
102
RTVSPost2010PropOp35
 70
     1
102
RTVSPost2010Prop36
280
     0
102
RTVSPost2010PropOp36
 70
     1
102
RTVSPost2010Prop37
 90
       50
102
RTVSPost2010PropOp37
 70
     1
102
RTVSPost2010Prop38
140
0.0
102
RTVSPost2010PropOp38
 70
     1
102
RTVSPost2010Prop39
140
1.0
102
RTVSPost2010PropOp39
 70
     1
102
RTVSPost2010Prop40
 90
        0
102
RTVSPost2010PropOp40
 70
     1
102
RTVSPost2010Prop41ColorIndex
 90
       18
102
RTVSPost2010Prop41ColorRGB
 90
        0
102
RTVSPost2010PropOp41
 70
     1
102
RTVSPost2010Prop42
 90
       50
102
RTVSPost2010PropOp42
 70
     1
102
RTVSPost2010Prop43
 90
        3
102
RTVSPost2010PropOp43
 70
     1
102
RTVSPost2010Prop44ColorIndex
 90
        5
102
RTVSPost2010Prop44ColorRGB
 90
      255
102
RTVSPost2010PropOp44
 70
     1
102
RTVSPost2010Prop45
280
     0
102
RTVSPost2010PropOp45
 70
     1
102
RTVSPost2010Prop46
 90
       50
102
RTVSPost2010PropOp46
 70
     1
102
RTVSPost2010Prop47
 90
       50
102
RTVSPost2010PropOp47
 70
     1
102
RTVSPost2010Prop48
 90
       50
102
RTVSPost2010PropOp48
 70
     1
102
RTVSPost2010Prop49
280
     0
102
RTVSPost2010PropOp49
 70
     1
102
RTVSPost2010Prop50
 90
       50
102
RTVSPost2010PropOp50
 70
     1
102
RTVSPost2010Prop51ColorIndex
 90
      256
102
RTVSPost2010Prop51ColorRGB
 90
-16777216
102
RTVSPost2010PropOp51
 70
     0
102
RTVSPost2010Prop52
140
1.0
102
RTVSPost2010PropOp52
 70
     0
102
RTVSPost2010Prop53
 90
        2
102
RTVSPost2010PropOp53
 70
     1
102
RTVSPost2010Prop54
  1
strokes_ogs.tif
102
RTVSPost2010PropOp54
 70
     1
102
RTVSPost2010Prop55
280
     0
102
RTVSPost2010PropOp55
 70
     1
102
RTVSPost2010Prop56
140
1.0
102
RTVSPost2010PropOp56
 70
     1
102
RTVSPost2010Prop57
140
1.0
102
RTVSPost2010PropOp57
 70
     1
  0
XRECORD
  5
2D0
102
{ACAD_REACTORS
330
2CF
102
}
330
2CF
100
AcDbXrecord
280
     1
102
RTVSPropertyOp0
 70
     1
102
RTVSPropertyOp1
 70
     1
102
RTVSPropertyOp2
 70
     1
102
RTVSPropertyOp3
 70
     1
102
RTVSPropertyOp4
 70
     1
102
RTVSPropertyOp5
 70
     1
102
RTVSPropertyOp6
 70
     1
102
RTVSPropertyOp7
 70
     1
102
RTVSPropertyOp8
 70
     1
102
RTVSPropertyOp9
 70
     1
102
RTVSPropertyOp10
 70
     1
102
RTVSPropertyOp11
 70
     1
102
RTVSPropertyOp12
 70
     1
102
RTVSPropertyOp13
 70
     1
102
RTVSPropertyOp14
 70
     1
102
RTVSPropertyOp15
 70
     1
102
RTVSPropertyOp16
 70
     1
102
RTVSPropertyOp17
 70
     1
102
RTVSPropertyOp18
 70
     1
102
RTVSPropertyOp19
 70
     1
102
RTVSPropertyOp20
 70
     1
102
RTVSPropertyOp21
 70
     1
102
RTVSPropertyOp22
 70
     1
102
RTVSPropertyOp23
 70
     1
102
RTVSPropertyOp24
 70
     1
102
RTVSPropertyOp25
 70
     1
102
RTVSPropertyOp26
 70
     1
102
RTVSPropertyOp27
 70
     1
102
RTVSPropertyOp28
 70
     1
102
RTVSPropertyOp29
 70
     1
102
RTVSPropertyOp30
 70
     1
102
RTVSPropertyOp31
 70
     1
102
RTVSPropertyOp32
 70
     1
102
RTVSPropertyOp33
 70
     1
102
RTVSPropertyOp34
 70
     1
102
RTVSPropertyOp35
 70
     1
102
RTVSPropertyOp36
 70
     1
102
RTVSPropertyOp37
 70
     1
102
RTVSPropertyOp38
 70
     1
102
RTVSPropertyOp39
 70
     1
102
RTVSPropertyOp40
 70
     1
102
RTVSPropertyOp41
 70
     1
102
RTVSPropertyOp42
 70
     1
102
RTVSPropertyOp43
 70
     1
102
RTVSPropertyOp44
 70
     1
102
RTVSPropertyOp45
 70
     1
102
RTVSPropertyOp46
 70
     1
102
RTVSPropertyOp47
 70
     1
102
RTVSPropertyOp48
 70
     1
102
RTVSPropertyOp49
 70
     1
102
RTVSPropertyOp50
 70
     1
102
RTVSPropertyOp51
 70
     0
102
RTVSPropertyOp52
 70
     0
102
RTVSPropertyOp53
 70
     1
102
RTVSPropertyOp54
 70
     1
102
RTVSPropertyOp55
 70
     1
102
RTVSPropertyOp56
 70
     1
102
RTVSPropertyOp57
 70
     1
102
RTVSPost2010Prop28
280
     0
102
RTVSPost2010PropOp28
 70
     1
102
RTVSPost2010Prop29
280
     1
102
RTVSPost2010PropOp29
 70
     1
102
RTVSPost2010Prop30
280
     1
102
RTVSPost2010PropOp30
 70
     1
102
RTVSPost2010Prop31
280
     0
102
RTVSPost2010PropOp31
 70
     1
102
RTVSPost2010Prop32
280
     0
102
RTVSPost2010PropOp32
 70
     1
102
RTVSPost2010Prop33
280
     0
102
RTVSPost2010PropOp33
 70
     1
102
RTVSPost2010Prop34
280
     0
102
RTVSPost2010PropOp34
 70
     1
102
RTVSPost2010Prop35
280
     0
102
RTVSPost2010PropOp35
 70
     1
102
RTVSPost2010Prop36
280
     0
102
RTVSPost2010PropOp36
 70
     1
102
RTVSPost2010Prop37
 90
       50
102
RTVSPost2010PropOp37
 70
     1
102
RTVSPost2010Prop38
140
0.0
102
RTVSPost2010PropOp38
 70
     1
102
RTVSPost2010Prop39
140
1.0
102
RTVSPost2010PropOp39
 70
     1
102
RTVSPost2010Prop40
 90
        0
102
RTVSPost2010PropOp40
 70
     1
102
RTVSPost2010Prop41ColorIndex
 90
       18
102
RTVSPost2010Prop41ColorRGB
 90
        0
102
RTVSPost2010PropOp41
 70
     1
102
RTVSPost2010Prop42
 90
       50
102
RTVSPost2010PropOp42
 70
     1
102
RTVSPost2010Prop43
 90
        3
102
RTVSPost2010PropOp43
 70
     1
102
RTVSPost2010Prop44ColorIndex
 90
        5
102
RTVSPost2010Prop44ColorRGB
 90
      255
102
RTVSPost2010PropOp44
 70
     1
102
RTVSPost2010Prop45
280
     0
102
RTVSPost2010PropOp45
 70
     1
102
RTVSPost2010Prop46
 90
       50
102
RTVSPost2010PropOp46
 70
     1
102
RTVSPost2010Prop47
 90
       50
102
RTVSPost2010PropOp47
 70
     1
102
RTVSPost2010Prop48
 90
       50
102
RTVSPost2010PropOp48
 70
     1
102
RTVSPost2010Prop49
280
     0
102
RTVSPost2010PropOp49
 70
     1
102
RTVSPost2010Prop50
 90
       50
102
RTVSPost2010PropOp50
 70
     1
102
RTVSPost2010Prop51ColorIndex
 90
      256
102
RTVSPost2010Prop51ColorRGB
 90
-16777216
102
RTVSPost2010PropOp51
 70
     0
102
RTVSPost2010Prop52
140
1.0
102
RTVSPost2010PropOp52
 70
     0
102
RTVSPost2010Prop53
 90
        2
102
RTVSPost2010PropOp53
 70
     1
102
RTVSPost2010Prop54
  1
strokes_ogs.tif
102
RTVSPost2010PropOp54
 70
     1
102
RTVSPost2010Prop55
280
     0
102
RTVSPost2010PropOp55
 70
     1
102
RTVSPost2010Prop56
140
1.0
102
RTVSPost2010PropOp56
 70
     1
102
RTVSPost2010Prop57
140
1.0
102
RTVSPost2010PropOp57
 70
     1
  0
XRECORD
  5
2C4
102
{ACAD_REACTORS
330
2C3
102
}
330
2C3
100
AcDbXrecord
280
     1
102
RTVSPropertyOp0
 70
     1
102
RTVSPropertyOp1
 70
     1
102
RTVSPropertyOp2
 70
     1
102
RTVSPropertyOp3
 70
     1
102
RTVSPropertyOp4
 70
     1
102
RTVSPropertyOp5
 70
     1
102
RTVSPropertyOp6
 70
     1
102
RTVSPropertyOp7
 70
     1
102
RTVSPropertyOp8
 70
     1
102
RTVSPropertyOp9
 70
     1
102
RTVSPropertyOp10
 70
     1
102
RTVSPropertyOp11
 70
     1
102
RTVSPropertyOp12
 70
     1
102
RTVSPropertyOp13
 70
     1
102
RTVSPropertyOp14
 70
     1
102
RTVSPropertyOp15
 70
     1
102
RTVSPropertyOp16
 70
     1
102
RTVSPropertyOp17
 70
     1
102
RTVSPropertyOp18
 70
     1
102
RTVSPropertyOp19
 70
     1
102
RTVSPropertyOp20
 70
     1
102
RTVSPropertyOp21
 70
     1
102
RTVSPropertyOp22
 70
     1
102
RTVSPropertyOp23
 70
     1
102
RTVSPropertyOp24
 70
     1
102
RTVSPropertyOp25
 70
     1
102
RTVSPropertyOp26
 70
     1
102
RTVSPropertyOp27
 70
     1
102
RTVSPropertyOp28
 70
     1
102
RTVSPropertyOp29
 70
     1
102
RTVSPropertyOp30
 70
     1
102
RTVSPropertyOp31
 70
     1
102
RTVSPropertyOp32
 70
     1
102
RTVSPropertyOp33
 70
     1
102
RTVSPropertyOp34
 70
     1
102
RTVSPropertyOp35
 70
     1
102
RTVSPropertyOp36
 70
     1
102
RTVSPropertyOp37
 70
     1
102
RTVSPropertyOp38
 70
     1
102
RTVSPropertyOp39
 70
     1
102
RTVSPropertyOp40
 70
     1
102
RTVSPropertyOp41
 70
     1
102
RTVSPropertyOp42
 70
     1
102
RTVSPropertyOp43
 70
     1
102
RTVSPropertyOp44
 70
     1
102
RTVSPropertyOp45
 70
     1
102
RTVSPropertyOp46
 70
     1
102
RTVSPropertyOp47
 70
     1
102
RTVSPropertyOp48
 70
     1
102
RTVSPropertyOp49
 70
     1
102
RTVSPropertyOp50
 70
     1
102
RTVSPropertyOp51
 70
     0
102
RTVSPropertyOp52
 70
     0
102
RTVSPropertyOp53
 70
     1
102
RTVSPropertyOp54
 70
     1
102
RTVSPropertyOp55
 70
     1
102
RTVSPropertyOp56
 70
     1
102
RTVSPropertyOp57
 70
     1
102
RTVSPost2010Prop28
280
     0
102
RTVSPost2010PropOp28
 70
     1
102
RTVSPost2010Prop29
280
     1
102
RTVSPost2010PropOp29
 70
     1
102
RTVSPost2010Prop30
280
     1
102
RTVSPost2010PropOp30
 70
     1
102
RTVSPost2010Prop31
280
     0
102
RTVSPost2010PropOp31
 70
     1
102
RTVSPost2010Prop32
280
     0
102
RTVSPost2010PropOp32
 70
     1
102
RTVSPost2010Prop33
280
     0
102
RTVSPost2010PropOp33
 70
     1
102
RTVSPost2010Prop34
280
     0
102
RTVSPost2010PropOp34
 70
     1
102
RTVSPost2010Prop35
280
     0
102
RTVSPost2010PropOp35
 70
     1
102
RTVSPost2010Prop36
280
     0
102
RTVSPost2010PropOp36
 70
     1
102
RTVSPost2010Prop37
 90
       50
102
RTVSPost2010PropOp37
 70
     1
102
RTVSPost2010Prop38
140
0.0
102
RTVSPost2010PropOp38
 70
     1
102
RTVSPost2010Prop39
140
1.0
102
RTVSPost2010PropOp39
 70
     1
102
RTVSPost2010Prop40
 90
        0
102
RTVSPost2010PropOp40
 70
     1
102
RTVSPost2010Prop41ColorIndex
 90
       18
102
RTVSPost2010Prop41ColorRGB
 90
        0
102
RTVSPost2010PropOp41
 70
     1
102
RTVSPost2010Prop42
 90
       50
102
RTVSPost2010PropOp42
 70
     1
102
RTVSPost2010Prop43
 90
        3
102
RTVSPost2010PropOp43
 70
     1
102
RTVSPost2010Prop44ColorIndex
 90
        5
102
RTVSPost2010Prop44ColorRGB
 90
      255
102
RTVSPost2010PropOp44
 70
     1
102
RTVSPost2010Prop45
280
     0
102
RTVSPost2010PropOp45
 70
     1
102
RTVSPost2010Prop46
 90
       50
102
RTVSPost2010PropOp46
 70
     1
102
RTVSPost2010Prop47
 90
       50
102
RTVSPost2010PropOp47
 70
     1
102
RTVSPost2010Prop48
 90
       50
102
RTVSPost2010PropOp48
 70
     1
102
RTVSPost2010Prop49
280
     0
102
RTVSPost2010PropOp49
 70
     1
102
RTVSPost2010Prop50
 90
       50
102
RTVSPost2010PropOp50
 70
     1
102
RTVSPost2010Prop51ColorIndex
 90
      256
102
RTVSPost2010Prop51ColorRGB
 90
-16777216
102
RTVSPost2010PropOp51
 70
     0
102
RTVSPost2010Prop52
140
1.0
102
RTVSPost2010PropOp52
 70
     0
102
RTVSPost2010Prop53
 90
        2
102
RTVSPost2010PropOp53
 70
     1
102
RTVSPost2010Prop54
  1
strokes_ogs.tif
102
RTVSPost2010PropOp54
 70
     1
102
RTVSPost2010Prop55
280
     0
102
RTVSPost2010PropOp55
 70
     1
102
RTVSPost2010Prop56
140
1.0
102
RTVSPost2010PropOp56
 70
     1
102
RTVSPost2010Prop57
140
1.0
102
RTVSPost2010PropOp57
 70
     1
  0
XRECORD
  5
2C6
102
{ACAD_REACTORS
330
2C5
102
}
330
2C5
100
AcDbXrecord
280
     1
102
RTVSPropertyOp0
 70
     1
102
RTVSPropertyOp1
 70
     1
102
RTVSPropertyOp2
 70
     1
102
RTVSPropertyOp3
 70
     1
102
RTVSPropertyOp4
 70
     1
102
RTVSPropertyOp5
 70
     1
102
RTVSPropertyOp6
 70
     1
102
RTVSPropertyOp7
 70
     1
102
RTVSPropertyOp8
 70
     1
102
RTVSPropertyOp9
 70
     1
102
RTVSPropertyOp10
 70
     1
102
RTVSPropertyOp11
 70
     1
102
RTVSPropertyOp12
 70
     1
102
RTVSPropertyOp13
 70
     1
102
RTVSPropertyOp14
 70
     1
102
RTVSPropertyOp15
 70
     1
102
RTVSPropertyOp16
 70
     1
102
RTVSPropertyOp17
 70
     1
102
RTVSPropertyOp18
 70
     1
102
RTVSPropertyOp19
 70
     1
102
RTVSPropertyOp20
 70
     1
102
RTVSPropertyOp21
 70
     1
102
RTVSPropertyOp22
 70
     1
102
RTVSPropertyOp23
 70
     1
102
RTVSPropertyOp24
 70
     1
102
RTVSPropertyOp25
 70
     1
102
RTVSPropertyOp26
 70
     1
102
RTVSPropertyOp27
 70
     1
102
RTVSPropertyOp28
 70
     1
102
RTVSPropertyOp29
 70
     1
102
RTVSPropertyOp30
 70
     1
102
RTVSPropertyOp31
 70
     1
102
RTVSPropertyOp32
 70
     1
102
RTVSPropertyOp33
 70
     1
102
RTVSPropertyOp34
 70
     1
102
RTVSPropertyOp35
 70
     1
102
RTVSPropertyOp36
 70
     1
102
RTVSPropertyOp37
 70
     1
102
RTVSPropertyOp38
 70
     1
102
RTVSPropertyOp39
 70
     1
102
RTVSPropertyOp40
 70
     1
102
RTVSPropertyOp41
 70
     1
102
RTVSPropertyOp42
 70
     1
102
RTVSPropertyOp43
 70
     1
102
RTVSPropertyOp44
 70
     1
102
RTVSPropertyOp45
 70
     1
102
RTVSPropertyOp46
 70
     1
102
RTVSPropertyOp47
 70
     1
102
RTVSPropertyOp48
 70
     1
102
RTVSPropertyOp49
 70
     1
102
RTVSPropertyOp50
 70
     1
102
RTVSPropertyOp51
 70
     0
102
RTVSPropertyOp52
 70
     0
102
RTVSPropertyOp53
 70
     1
102
RTVSPropertyOp54
 70
     1
102
RTVSPropertyOp55
 70
     1
102
RTVSPropertyOp56
 70
     1
102
RTVSPropertyOp57
 70
     1
102
RTVSPost2010Prop28
280
     0
102
RTVSPost2010PropOp28
 70
     1
102
RTVSPost2010Prop29
280
     1
102
RTVSPost2010PropOp29
 70
     1
102
RTVSPost2010Prop30
280
     1
102
RTVSPost2010PropOp30
 70
     1
102
RTVSPost2010Prop31
280
     0
102
RTVSPost2010PropOp31
 70
     1
102
RTVSPost2010Prop32
280
     0
102
RTVSPost2010PropOp32
 70
     1
102
RTVSPost2010Prop33
280
     0
102
RTVSPost2010PropOp33
 70
     1
102
RTVSPost2010Prop34
280
     0
102
RTVSPost2010PropOp34
 70
     1
102
RTVSPost2010Prop35
280
     0
102
RTVSPost2010PropOp35
 70
     1
102
RTVSPost2010Prop36
280
     0
102
RTVSPost2010PropOp36
 70
     1
102
RTVSPost2010Prop37
 90
       50
102
RTVSPost2010PropOp37
 70
     1
102
RTVSPost2010Prop38
140
0.0
102
RTVSPost2010PropOp38
 70
     1
102
RTVSPost2010Prop39
140
1.0
102
RTVSPost2010PropOp39
 70
     1
102
RTVSPost2010Prop40
 90
        0
102
RTVSPost2010PropOp40
 70
     1
102
RTVSPost2010Prop41ColorIndex
 90
       18
102
RTVSPost2010Prop41ColorRGB
 90
        0
102
RTVSPost2010PropOp41
 70
     1
102
RTVSPost2010Prop42
 90
       50
102
RTVSPost2010PropOp42
 70
     1
102
RTVSPost2010Prop43
 90
        3
102
RTVSPost2010PropOp43
 70
     1
102
RTVSPost2010Prop44ColorIndex
 90
        5
102
RTVSPost2010Prop44ColorRGB
 90
      255
102
RTVSPost2010PropOp44
 70
     1
102
RTVSPost2010Prop45
280
     0
102
RTVSPost2010PropOp45
 70
     1
102
RTVSPost2010Prop46
 90
       50
102
RTVSPost2010PropOp46
 70
     1
102
RTVSPost2010Prop47
 90
       50
102
RTVSPost2010PropOp47
 70
     1
102
RTVSPost2010Prop48
 90
       50
102
RTVSPost2010PropOp48
 70
     1
102
RTVSPost2010Prop49
280
     0
102
RTVSPost2010PropOp49
 70
     1
102
RTVSPost2010Prop50
 90
       50
102
RTVSPost2010PropOp50
 70
     1
102
RTVSPost2010Prop51ColorIndex
 90
      256
102
RTVSPost2010Prop51ColorRGB
 90
-16777216
102
RTVSPost2010PropOp51
 70
     0
102
RTVSPost2010Prop52
140
1.0
102
RTVSPost2010PropOp52
 70
     0
102
RTVSPost2010Prop53
 90
        2
102
RTVSPost2010PropOp53
 70
     1
102
RTVSPost2010Prop54
  1
strokes_ogs.tif
102
RTVSPost2010PropOp54
 70
     1
102
RTVSPost2010Prop55
280
     0
102
RTVSPost2010PropOp55
 70
     1
102
RTVSPost2010Prop56
140
1.0
102
RTVSPost2010PropOp56
 70
     1
102
RTVSPost2010Prop57
140
1.0
102
RTVSPost2010PropOp57
 70
     1
  0
XRECORD
  5
2D6
102
{ACAD_REACTORS
330
2D5
102
}
330
2D5
100
AcDbXrecord
280
     1
102
RTVSPropertyOp0
 70
     0
102
RTVSPropertyOp1
 70
     0
102
RTVSPropertyOp2
 70
     0
102
RTVSPropertyOp3
 70
     0
102
RTVSPropertyOp4
 70
     0
102
RTVSPropertyOp5
 70
     0
102
RTVSPropertyOp6
 70
     0
102
RTVSPropertyOp7
 70
     0
102
RTVSPropertyOp8
 70
     0
102
RTVSPropertyOp9
 70
     0
102
RTVSPropertyOp10
 70
     0
102
RTVSPropertyOp11
 70
     0
102
RTVSPropertyOp12
 70
     0
102
RTVSPropertyOp13
 70
     0
102
RTVSPropertyOp14
 70
     2
102
RTVSPropertyOp15
 70
     0
102
RTVSPropertyOp16
 70
     0
102
RTVSPropertyOp17
 70
     0
102
RTVSPropertyOp18
 70
     0
102
RTVSPropertyOp19
 70
     0
102
RTVSPropertyOp20
 70
     0
102
RTVSPropertyOp21
 70
     0
102
RTVSPropertyOp22
 70
     0
102
RTVSPropertyOp23
 70
     0
102
RTVSPropertyOp24
 70
     0
102
RTVSPropertyOp25
 70
     0
102
RTVSPropertyOp26
 70
     0
102
RTVSPropertyOp27
 70
     0
102
RTVSPropertyOp28
 70
     0
102
RTVSPropertyOp29
 70
     0
102
RTVSPropertyOp30
 70
     0
102
RTVSPropertyOp31
 70
     0
102
RTVSPropertyOp32
 70
     0
102
RTVSPropertyOp33
 70
     0
102
RTVSPropertyOp34
 70
     0
102
RTVSPropertyOp35
 70
     0
102
RTVSPropertyOp36
 70
     0
102
RTVSPropertyOp37
 70
     0
102
RTVSPropertyOp38
 70
     0
102
RTVSPropertyOp39
 70
     0
102
RTVSPropertyOp40
 70
     0
102
RTVSPropertyOp41
 70
     0
102
RTVSPropertyOp42
 70
     0
102
RTVSPropertyOp43
 70
     0
102
RTVSPropertyOp44
 70
     0
102
RTVSPropertyOp45
 70
     0
102
RTVSPropertyOp46
 70
     0
102
RTVSPropertyOp47
 70
     0
102
RTVSPropertyOp48
 70
     0
102
RTVSPropertyOp49
 70
     0
102
RTVSPropertyOp50
 70
     0
102
RTVSPropertyOp51
 70
     0
102
RTVSPropertyOp52
 70
     0
102
RTVSPropertyOp53
 70
     0
102
RTVSPropertyOp54
 70
     0
102
RTVSPropertyOp55
 70
     0
102
RTVSPropertyOp56
 70
     0
102
RTVSPropertyOp57
 70
     0
102
RTVSPost2010Prop28
280
     0
102
RTVSPost2010PropOp28
 70
     0
102
RTVSPost2010Prop29
280
     1
102
RTVSPost2010PropOp29
 70
     0
102
RTVSPost2010Prop30
280
     1
102
RTVSPost2010PropOp30
 70
     0
102
RTVSPost2010Prop31
280
     0
102
RTVSPost2010PropOp31
 70
     0
102
RTVSPost2010Prop32
280
     0
102
RTVSPost2010PropOp32
 70
     0
102
RTVSPost2010Prop33
280
     0
102
RTVSPost2010PropOp33
 70
     0
102
RTVSPost2010Prop34
280
     0
102
RTVSPost2010PropOp34
 70
     0
102
RTVSPost2010Prop35
280
     0
102
RTVSPost2010PropOp35
 70
     0
102
RTVSPost2010Prop36
280
     0
102
RTVSPost2010PropOp36
 70
     0
102
RTVSPost2010Prop37
 90
       50
102
RTVSPost2010PropOp37
 70
     0
102
RTVSPost2010Prop38
140
0.0
102
RTVSPost2010PropOp38
 70
     0
102
RTVSPost2010Prop39
140
1.0
102
RTVSPost2010PropOp39
 70
     0
102
RTVSPost2010Prop40
 90
        0
102
RTVSPost2010PropOp40
 70
     0
102
RTVSPost2010Prop41ColorIndex
 90
       18
102
RTVSPost2010Prop41ColorRGB
 90
        0
102
RTVSPost2010PropOp41
 70
     0
102
RTVSPost2010Prop42
 90
       50
102
RTVSPost2010PropOp42
 70
     0
102
RTVSPost2010Prop43
 90
        3
102
RTVSPost2010PropOp43
 70
     0
102
RTVSPost2010Prop44ColorIndex
 90
        5
102
RTVSPost2010Prop44ColorRGB
 90
      255
102
RTVSPost2010PropOp44
 70
     0
102
RTVSPost2010Prop45
280
     0
102
RTVSPost2010PropOp45
 70
     0
102
RTVSPost2010Prop46
 90
       50
102
RTVSPost2010PropOp46
 70
     0
102
RTVSPost2010Prop47
 90
       50
102
RTVSPost2010PropOp47
 70
     0
102
RTVSPost2010Prop48
 90
       50
102
RTVSPost2010PropOp48
 70
     0
102
RTVSPost2010Prop49
280
     0
102
RTVSPost2010PropOp49
 70
     0
102
RTVSPost2010Prop50
 90
       50
102
RTVSPost2010PropOp50
 70
     0
102
RTVSPost2010Prop51ColorIndex
 90
      256
102
RTVSPost2010Prop51ColorRGB
 90
-16777216
102
RTVSPost2010PropOp51
 70
     0
102
RTVSPost2010Prop52
140
1.0
102
RTVSPost2010PropOp52
 70
     0
102
RTVSPost2010Prop53
 90
        2
102
RTVSPost2010PropOp53
 70
     0
102
RTVSPost2010Prop54
  1
strokes_ogs.tif
102
RTVSPost2010PropOp54
 70
     0
102
RTVSPost2010Prop55
280
     0
102
RTVSPost2010PropOp55
 70
     0
102
RTVSPost2010Prop56
140
1.0
102
RTVSPost2010PropOp56
 70
     0
102
RTVSPost2010Prop57
140
1.0
102
RTVSPost2010PropOp57
 70
     0
  0
XRECORD
  5
2CE
102
{ACAD_REACTORS
330
2CD
102
}
330
2CD
100
AcDbXrecord
280
     1
102
RTVSPropertyOp0
 70
     1
102
RTVSPropertyOp1
 70
     1
102
RTVSPropertyOp2
 70
     1
102
RTVSPropertyOp3
 70
     1
102
RTVSPropertyOp4
 70
     1
102
RTVSPropertyOp5
 70
     1
102
RTVSPropertyOp6
 70
     1
102
RTVSPropertyOp7
 70
     1
102
RTVSPropertyOp8
 70
     1
102
RTVSPropertyOp9
 70
     1
102
RTVSPropertyOp10
 70
     1
102
RTVSPropertyOp11
 70
     1
102
RTVSPropertyOp12
 70
     1
102
RTVSPropertyOp13
 70
     1
102
RTVSPropertyOp14
 70
     1
102
RTVSPropertyOp15
 70
     1
102
RTVSPropertyOp16
 70
     1
102
RTVSPropertyOp17
 70
     1
102
RTVSPropertyOp18
 70
     1
102
RTVSPropertyOp19
 70
     1
102
RTVSPropertyOp20
 70
     1
102
RTVSPropertyOp21
 70
     1
102
RTVSPropertyOp22
 70
     1
102
RTVSPropertyOp23
 70
     1
102
RTVSPropertyOp24
 70
     1
102
RTVSPropertyOp25
 70
     1
102
RTVSPropertyOp26
 70
     1
102
RTVSPropertyOp27
 70
     1
102
RTVSPropertyOp28
 70
     1
102
RTVSPropertyOp29
 70
     1
102
RTVSPropertyOp30
 70
     1
102
RTVSPropertyOp31
 70
     1
102
RTVSPropertyOp32
 70
     1
102
RTVSPropertyOp33
 70
     1
102
RTVSPropertyOp34
 70
     1
102
RTVSPropertyOp35
 70
     1
102
RTVSPropertyOp36
 70
     1
102
RTVSPropertyOp37
 70
     1
102
RTVSPropertyOp38
 70
     1
102
RTVSPropertyOp39
 70
     1
102
RTVSPropertyOp40
 70
     1
102
RTVSPropertyOp41
 70
     1
102
RTVSPropertyOp42
 70
     1
102
RTVSPropertyOp43
 70
     1
102
RTVSPropertyOp44
 70
     1
102
RTVSPropertyOp45
 70
     1
102
RTVSPropertyOp46
 70
     1
102
RTVSPropertyOp47
 70
     1
102
RTVSPropertyOp48
 70
     1
102
RTVSPropertyOp49
 70
     1
102
RTVSPropertyOp50
 70
     1
102
RTVSPropertyOp51
 70
     0
102
RTVSPropertyOp52
 70
     0
102
RTVSPropertyOp53
 70
     1
102
RTVSPropertyOp54
 70
     1
102
RTVSPropertyOp55
 70
     1
102
RTVSPropertyOp56
 70
     1
102
RTVSPropertyOp57
 70
     1
102
RTVSPost2010Prop28
280
     0
102
RTVSPost2010PropOp28
 70
     1
102
RTVSPost2010Prop29
280
     1
102
RTVSPost2010PropOp29
 70
     1
102
RTVSPost2010Prop30
280
     1
102
RTVSPost2010PropOp30
 70
     1
102
RTVSPost2010Prop31
280
     0
102
RTVSPost2010PropOp31
 70
     1
102
RTVSPost2010Prop32
280
     0
102
RTVSPost2010PropOp32
 70
     1
102
RTVSPost2010Prop33
280
     0
102
RTVSPost2010PropOp33
 70
     1
102
RTVSPost2010Prop34
280
     0
102
RTVSPost2010PropOp34
 70
     1
102
RTVSPost2010Prop35
280
     0
102
RTVSPost2010PropOp35
 70
     1
102
RTVSPost2010Prop36
280
     0
102
RTVSPost2010PropOp36
 70
     1
102
RTVSPost2010Prop37
 90
       50
102
RTVSPost2010PropOp37
 70
     1
102
RTVSPost2010Prop38
140
0.0
102
RTVSPost2010PropOp38
 70
     1
102
RTVSPost2010Prop39
140
1.0
102
RTVSPost2010PropOp39
 70
     1
102
RTVSPost2010Prop40
 90
        0
102
RTVSPost2010PropOp40
 70
     1
102
RTVSPost2010Prop41ColorIndex
 90
       18
102
RTVSPost2010Prop41ColorRGB
 90
        0
102
RTVSPost2010PropOp41
 70
     1
102
RTVSPost2010Prop42
 90
       50
102
RTVSPost2010PropOp42
 70
     1
102
RTVSPost2010Prop43
 90
        3
102
RTVSPost2010PropOp43
 70
     1
102
RTVSPost2010Prop44ColorIndex
 90
        5
102
RTVSPost2010Prop44ColorRGB
 90
      255
102
RTVSPost2010PropOp44
 70
     1
102
RTVSPost2010Prop45
280
     0
102
RTVSPost2010PropOp45
 70
     1
102
RTVSPost2010Prop46
 90
       50
102
RTVSPost2010PropOp46
 70
     1
102
RTVSPost2010Prop47
 90
       50
102
RTVSPost2010PropOp47
 70
     1
102
RTVSPost2010Prop48
 90
       50
102
RTVSPost2010PropOp48
 70
     1
102
RTVSPost2010Prop49
280
     0
102
RTVSPost2010PropOp49
 70
     1
102
RTVSPost2010Prop50
 90
       50
102
RTVSPost2010PropOp50
 70
     1
102
RTVSPost2010Prop51ColorIndex
 90
      256
102
RTVSPost2010Prop51ColorRGB
 90
-16777216
102
RTVSPost2010PropOp51
 70
     0
102
RTVSPost2010Prop52
140
1.0
102
RTVSPost2010PropOp52
 70
     0
102
RTVSPost2010Prop53
 90
        2
102
RTVSPost2010PropOp53
 70
     1
102
RTVSPost2010Prop54
  1
strokes_ogs.tif
102
RTVSPost2010PropOp54
 70
     1
102
RTVSPost2010Prop55
280
     0
102
RTVSPost2010PropOp55
 70
     1
102
RTVSPost2010Prop56
140
1.0
102
RTVSPost2010PropOp56
 70
     1
102
RTVSPost2010Prop57
140
1.0
102
RTVSPost2010PropOp57
 70
     1
  0
XRECORD
  5
2B2
102
{ACAD_REACTORS
330
2B1
102
}
330
2B1
100
AcDbXrecord
280
     1
102
RTVSPropertyOp0
 70
     1
102
RTVSPropertyOp1
 70
     1
102
RTVSPropertyOp2
 70
     1
102
RTVSPropertyOp3
 70
     1
102
RTVSPropertyOp4
 70
     1
102
RTVSPropertyOp5
 70
     1
102
RTVSPropertyOp6
 70
     1
102
RTVSPropertyOp7
 70
     1
102
RTVSPropertyOp8
 70
     1
102
RTVSPropertyOp9
 70
     1
102
RTVSPropertyOp10
 70
     1
102
RTVSPropertyOp11
 70
     1
102
RTVSPropertyOp12
 70
     1
102
RTVSPropertyOp13
 70
     1
102
RTVSPropertyOp14
 70
     1
102
RTVSPropertyOp15
 70
     1
102
RTVSPropertyOp16
 70
     1
102
RTVSPropertyOp17
 70
     1
102
RTVSPropertyOp18
 70
     1
102
RTVSPropertyOp19
 70
     1
102
RTVSPropertyOp20
 70
     1
102
RTVSPropertyOp21
 70
     1
102
RTVSPropertyOp22
 70
     1
102
RTVSPropertyOp23
 70
     1
102
RTVSPropertyOp24
 70
     1
102
RTVSPropertyOp25
 70
     1
102
RTVSPropertyOp26
 70
     1
102
RTVSPropertyOp27
 70
     1
102
RTVSPropertyOp28
 70
     1
102
RTVSPropertyOp29
 70
     1
102
RTVSPropertyOp30
 70
     1
102
RTVSPropertyOp31
 70
     1
102
RTVSPropertyOp32
 70
     1
102
RTVSPropertyOp33
 70
     1
102
RTVSPropertyOp34
 70
     1
102
RTVSPropertyOp35
 70
     1
102
RTVSPropertyOp36
 70
     1
102
RTVSPropertyOp37
 70
     1
102
RTVSPropertyOp38
 70
     1
102
RTVSPropertyOp39
 70
     1
102
RTVSPropertyOp40
 70
     1
102
RTVSPropertyOp41
 70
     1
102
RTVSPropertyOp42
 70
     1
102
RTVSPropertyOp43
 70
     1
102
RTVSPropertyOp44
 70
     1
102
RTVSPropertyOp45
 70
     1
102
RTVSPropertyOp46
 70
     1
102
RTVSPropertyOp47
 70
     1
102
RTVSPropertyOp48
 70
     1
102
RTVSPropertyOp49
 70
     1
102
RTVSPropertyOp50
 70
     1
102
RTVSPropertyOp51
 70
     0
102
RTVSPropertyOp52
 70
     0
102
RTVSPropertyOp53
 70
     1
102
RTVSPropertyOp54
 70
     1
102
RTVSPropertyOp55
 70
     1
102
RTVSPropertyOp56
 70
     1
102
RTVSPropertyOp57
 70
     1
102
RTVSPost2010Prop28
280
     0
102
RTVSPost2010PropOp28
 70
     1
102
RTVSPost2010Prop29
280
     1
102
RTVSPost2010PropOp29
 70
     1
102
RTVSPost2010Prop30
280
     1
102
RTVSPost2010PropOp30
 70
     1
102
RTVSPost2010Prop31
280
     0
102
RTVSPost2010PropOp31
 70
     1
102
RTVSPost2010Prop32
280
     0
102
RTVSPost2010PropOp32
 70
     1
102
RTVSPost2010Prop33
280
     0
102
RTVSPost2010PropOp33
 70
     1
102
RTVSPost2010Prop34
280
     0
102
RTVSPost2010PropOp34
 70
     1
102
RTVSPost2010Prop35
280
     0
102
RTVSPost2010PropOp35
 70
     1
102
RTVSPost2010Prop36
280
     0
102
RTVSPost2010PropOp36
 70
     1
102
RTVSPost2010Prop37
 90
       50
102
RTVSPost2010PropOp37
 70
     1
102
RTVSPost2010Prop38
140
0.0
102
RTVSPost2010PropOp38
 70
     1
102
RTVSPost2010Prop39
140
1.0
102
RTVSPost2010PropOp39
 70
     1
102
RTVSPost2010Prop40
 90
        0
102
RTVSPost2010PropOp40
 70
     1
102
RTVSPost2010Prop41ColorIndex
 90
       18
102
RTVSPost2010Prop41ColorRGB
 90
        0
102
RTVSPost2010PropOp41
 70
     1
102
RTVSPost2010Prop42
 90
       50
102
RTVSPost2010PropOp42
 70
     1
102
RTVSPost2010Prop43
 90
        3
102
RTVSPost2010PropOp43
 70
     1
102
RTVSPost2010Prop44ColorIndex
 90
        5
102
RTVSPost2010Prop44ColorRGB
 90
      255
102
RTVSPost2010PropOp44
 70
     1
102
RTVSPost2010Prop45
280
     0
102
RTVSPost2010PropOp45
 70
     1
102
RTVSPost2010Prop46
 90
       50
102
RTVSPost2010PropOp46
 70
     1
102
RTVSPost2010Prop47
 90
       50
102
RTVSPost2010PropOp47
 70
     1
102
RTVSPost2010Prop48
 90
       50
102
RTVSPost2010PropOp48
 70
     1
102
RTVSPost2010Prop49
280
     0
102
RTVSPost2010PropOp49
 70
     1
102
RTVSPost2010Prop50
 90
       50
102
RTVSPost2010PropOp50
 70
     1
102
RTVSPost2010Prop51ColorIndex
 90
      256
102
RTVSPost2010Prop51ColorRGB
 90
-16777216
102
RTVSPost2010PropOp51
 70
     0
102
RTVSPost2010Prop52
140
1.0
102
RTVSPost2010PropOp52
 70
     0
102
RTVSPost2010Prop53
 90
        2
102
RTVSPost2010PropOp53
 70
     1
102
RTVSPost2010Prop54
  1
strokes_ogs.tif
102
RTVSPost2010PropOp54
 70
     1
102
RTVSPost2010Prop55
280
     0
102
RTVSPost2010PropOp55
 70
     1
102
RTVSPost2010Prop56
140
1.0
102
RTVSPost2010PropOp56
 70
     1
102
RTVSPost2010Prop57
140
1.0
102
RTVSPost2010PropOp57
 70
     1
  0
XRECORD
  5
2B4
102
{ACAD_REACTORS
330
2B3
102
}
330
2B3
100
AcDbXrecord
280
     1
102
RTVSPropertyOp0
 70
     1
102
RTVSPropertyOp1
 70
     1
102
RTVSPropertyOp2
 70
     1
102
RTVSPropertyOp3
 70
     1
102
RTVSPropertyOp4
 70
     1
102
RTVSPropertyOp5
 70
     1
102
RTVSPropertyOp6
 70
     1
102
RTVSPropertyOp7
 70
     1
102
RTVSPropertyOp8
 70
     1
102
RTVSPropertyOp9
 70
     1
102
RTVSPropertyOp10
 70
     1
102
RTVSPropertyOp11
 70
     1
102
RTVSPropertyOp12
 70
     1
102
RTVSPropertyOp13
 70
     1
102
RTVSPropertyOp14
 70
     1
102
RTVSPropertyOp15
 70
     1
102
RTVSPropertyOp16
 70
     1
102
RTVSPropertyOp17
 70
     1
102
RTVSPropertyOp18
 70
     1
102
RTVSPropertyOp19
 70
     1
102
RTVSPropertyOp20
 70
     1
102
RTVSPropertyOp21
 70
     1
102
RTVSPropertyOp22
 70
     1
102
RTVSPropertyOp23
 70
     1
102
RTVSPropertyOp24
 70
     1
102
RTVSPropertyOp25
 70
     1
102
RTVSPropertyOp26
 70
     1
102
RTVSPropertyOp27
 70
     1
102
RTVSPropertyOp28
 70
     1
102
RTVSPropertyOp29
 70
     1
102
RTVSPropertyOp30
 70
     1
102
RTVSPropertyOp31
 70
     1
102
RTVSPropertyOp32
 70
     1
102
RTVSPropertyOp33
 70
     1
102
RTVSPropertyOp34
 70
     1
102
RTVSPropertyOp35
 70
     1
102
RTVSPropertyOp36
 70
     1
102
RTVSPropertyOp37
 70
     1
102
RTVSPropertyOp38
 70
     1
102
RTVSPropertyOp39
 70
     1
102
RTVSPropertyOp40
 70
     1
102
RTVSPropertyOp41
 70
     1
102
RTVSPropertyOp42
 70
     1
102
RTVSPropertyOp43
 70
     1
102
RTVSPropertyOp44
 70
     1
102
RTVSPropertyOp45
 70
     1
102
RTVSPropertyOp46
 70
     1
102
RTVSPropertyOp47
 70
     1
102
RTVSPropertyOp48
 70
     1
102
RTVSPropertyOp49
 70
     1
102
RTVSPropertyOp50
 70
     1
102
RTVSPropertyOp51
 70
     0
102
RTVSPropertyOp52
 70
     0
102
RTVSPropertyOp53
 70
     1
102
RTVSPropertyOp54
 70
     1
102
RTVSPropertyOp55
 70
     1
102
RTVSPropertyOp56
 70
     1
102
RTVSPropertyOp57
 70
     1
102
RTVSPost2010Prop28
280
     0
102
RTVSPost2010PropOp28
 70
     1
102
RTVSPost2010Prop29
280
     1
102
RTVSPost2010PropOp29
 70
     1
102
RTVSPost2010Prop30
280
     1
102
RTVSPost2010PropOp30
 70
     1
102
RTVSPost2010Prop31
280
     0
102
RTVSPost2010PropOp31
 70
     1
102
RTVSPost2010Prop32
280
     0
102
RTVSPost2010PropOp32
 70
     1
102
RTVSPost2010Prop33
280
     0
102
RTVSPost2010PropOp33
 70
     1
102
RTVSPost2010Prop34
280
     0
102
RTVSPost2010PropOp34
 70
     1
102
RTVSPost2010Prop35
280
     0
102
RTVSPost2010PropOp35
 70
     1
102
RTVSPost2010Prop36
280
     0
102
RTVSPost2010PropOp36
 70
     1
102
RTVSPost2010Prop37
 90
       50
102
RTVSPost2010PropOp37
 70
     1
102
RTVSPost2010Prop38
140
0.0
102
RTVSPost2010PropOp38
 70
     1
102
RTVSPost2010Prop39
140
1.0
102
RTVSPost2010PropOp39
 70
     1
102
RTVSPost2010Prop40
 90
        0
102
RTVSPost2010PropOp40
 70
     1
102
RTVSPost2010Prop41ColorIndex
 90
       18
102
RTVSPost2010Prop41ColorRGB
 90
        0
102
RTVSPost2010PropOp41
 70
     1
102
RTVSPost2010Prop42
 90
       50
102
RTVSPost2010PropOp42
 70
     1
102
RTVSPost2010Prop43
 90
        3
102
RTVSPost2010PropOp43
 70
     1
102
RTVSPost2010Prop44ColorIndex
 90
        5
102
RTVSPost2010Prop44ColorRGB
 90
      255
102
RTVSPost2010PropOp44
 70
     1
102
RTVSPost2010Prop45
280
     0
102
RTVSPost2010PropOp45
 70
     1
102
RTVSPost2010Prop46
 90
       50
102
RTVSPost2010PropOp46
 70
     1
102
RTVSPost2010Prop47
 90
       50
102
RTVSPost2010PropOp47
 70
     1
102
RTVSPost2010Prop48
 90
       50
102
RTVSPost2010PropOp48
 70
     1
102
RTVSPost2010Prop49
280
     0
102
RTVSPost2010PropOp49
 70
     1
102
RTVSPost2010Prop50
 90
       50
102
RTVSPost2010PropOp50
 70
     1
102
RTVSPost2010Prop51ColorIndex
 90
      256
102
RTVSPost2010Prop51ColorRGB
 90
-16777216
102
RTVSPost2010PropOp51
 70
     0
102
RTVSPost2010Prop52
140
1.0
102
RTVSPost2010PropOp52
 70
     0
102
RTVSPost2010Prop53
 90
        2
102
RTVSPost2010PropOp53
 70
     1
102
RTVSPost2010Prop54
  1
strokes_ogs.tif
102
RTVSPost2010PropOp54
 70
     1
102
RTVSPost2010Prop55
280
     0
102
RTVSPost2010PropOp55
 70
     1
102
RTVSPost2010Prop56
140
1.0
102
RTVSPost2010PropOp56
 70
     1
102
RTVSPost2010Prop57
140
1.0
102
RTVSPost2010PropOp57
 70
     1
  0
XRECORD
  5
2B6
102
{ACAD_REACTORS
330
2B5
102
}
330
2B5
100
AcDbXrecord
280
     1
102
RTVSPropertyOp0
 70
     1
102
RTVSPropertyOp1
 70
     1
102
RTVSPropertyOp2
 70
     1
102
RTVSPropertyOp3
 70
     1
102
RTVSPropertyOp4
 70
     1
102
RTVSPropertyOp5
 70
     1
102
RTVSPropertyOp6
 70
     1
102
RTVSPropertyOp7
 70
     1
102
RTVSPropertyOp8
 70
     1
102
RTVSPropertyOp9
 70
     1
102
RTVSPropertyOp10
 70
     1
102
RTVSPropertyOp11
 70
     1
102
RTVSPropertyOp12
 70
     1
102
RTVSPropertyOp13
 70
     1
102
RTVSPropertyOp14
 70
     1
102
RTVSPropertyOp15
 70
     1
102
RTVSPropertyOp16
 70
     1
102
RTVSPropertyOp17
 70
     1
102
RTVSPropertyOp18
 70
     1
102
RTVSPropertyOp19
 70
     1
102
RTVSPropertyOp20
 70
     1
102
RTVSPropertyOp21
 70
     1
102
RTVSPropertyOp22
 70
     1
102
RTVSPropertyOp23
 70
     1
102
RTVSPropertyOp24
 70
     1
102
RTVSPropertyOp25
 70
     1
102
RTVSPropertyOp26
 70
     1
102
RTVSPropertyOp27
 70
     1
102
RTVSPropertyOp28
 70
     1
102
RTVSPropertyOp29
 70
     1
102
RTVSPropertyOp30
 70
     1
102
RTVSPropertyOp31
 70
     1
102
RTVSPropertyOp32
 70
     1
102
RTVSPropertyOp33
 70
     1
102
RTVSPropertyOp34
 70
     1
102
RTVSPropertyOp35
 70
     1
102
RTVSPropertyOp36
 70
     1
102
RTVSPropertyOp37
 70
     1
102
RTVSPropertyOp38
 70
     1
102
RTVSPropertyOp39
 70
     1
102
RTVSPropertyOp40
 70
     1
102
RTVSPropertyOp41
 70
     1
102
RTVSPropertyOp42
 70
     1
102
RTVSPropertyOp43
 70
     1
102
RTVSPropertyOp44
 70
     1
102
RTVSPropertyOp45
 70
     1
102
RTVSPropertyOp46
 70
     1
102
RTVSPropertyOp47
 70
     1
102
RTVSPropertyOp48
 70
     1
102
RTVSPropertyOp49
 70
     1
102
RTVSPropertyOp50
 70
     1
102
RTVSPropertyOp51
 70
     0
102
RTVSPropertyOp52
 70
     0
102
RTVSPropertyOp53
 70
     1
102
RTVSPropertyOp54
 70
     1
102
RTVSPropertyOp55
 70
     1
102
RTVSPropertyOp56
 70
     1
102
RTVSPropertyOp57
 70
     1
102
RTVSPost2010Prop28
280
     0
102
RTVSPost2010PropOp28
 70
     1
102
RTVSPost2010Prop29
280
     1
102
RTVSPost2010PropOp29
 70
     1
102
RTVSPost2010Prop30
280
     1
102
RTVSPost2010PropOp30
 70
     1
102
RTVSPost2010Prop31
280
     0
102
RTVSPost2010PropOp31
 70
     1
102
RTVSPost2010Prop32
280
     0
102
RTVSPost2010PropOp32
 70
     1
102
RTVSPost2010Prop33
280
     0
102
RTVSPost2010PropOp33
 70
     1
102
RTVSPost2010Prop34
280
     0
102
RTVSPost2010PropOp34
 70
     1
102
RTVSPost2010Prop35
280
     0
102
RTVSPost2010PropOp35
 70
     1
102
RTVSPost2010Prop36
280
     0
102
RTVSPost2010PropOp36
 70
     1
102
RTVSPost2010Prop37
 90
       50
102
RTVSPost2010PropOp37
 70
     1
102
RTVSPost2010Prop38
140
0.0
102
RTVSPost2010PropOp38
 70
     1
102
RTVSPost2010Prop39
140
1.0
102
RTVSPost2010PropOp39
 70
     1
102
RTVSPost2010Prop40
 90
        0
102
RTVSPost2010PropOp40
 70
     1
102
RTVSPost2010Prop41ColorIndex
 90
       18
102
RTVSPost2010Prop41ColorRGB
 90
        0
102
RTVSPost2010PropOp41
 70
     1
102
RTVSPost2010Prop42
 90
       50
102
RTVSPost2010PropOp42
 70
     1
102
RTVSPost2010Prop43
 90
        3
102
RTVSPost2010PropOp43
 70
     1
102
RTVSPost2010Prop44ColorIndex
 90
        5
102
RTVSPost2010Prop44ColorRGB
 90
      255
102
RTVSPost2010PropOp44
 70
     1
102
RTVSPost2010Prop45
280
     0
102
RTVSPost2010PropOp45
 70
     1
102
RTVSPost2010Prop46
 90
       50
102
RTVSPost2010PropOp46
 70
     1
102
RTVSPost2010Prop47
 90
       50
102
RTVSPost2010PropOp47
 70
     1
102
RTVSPost2010Prop48
 90
       50
102
RTVSPost2010PropOp48
 70
     1
102
RTVSPost2010Prop49
280
     0
102
RTVSPost2010PropOp49
 70
     1
102
RTVSPost2010Prop50
 90
       50
102
RTVSPost2010PropOp50
 70
     1
102
RTVSPost2010Prop51ColorIndex
 90
      256
102
RTVSPost2010Prop51ColorRGB
 90
-16777216
102
RTVSPost2010PropOp51
 70
     0
102
RTVSPost2010Prop52
140
1.0
102
RTVSPost2010PropOp52
 70
     0
102
RTVSPost2010Prop53
 90
        2
102
RTVSPost2010PropOp53
 70
     1
102
RTVSPost2010Prop54
  1
strokes_ogs.tif
102
RTVSPost2010PropOp54
 70
     1
102
RTVSPost2010Prop55
280
     0
102
RTVSPost2010PropOp55
 70
     1
102
RTVSPost2010Prop56
140
1.0
102
RTVSPost2010PropOp56
 70
     1
102
RTVSPost2010Prop57
140
1.0
102
RTVSPost2010PropOp57
 70
     1
  0
XRECORD
  5
2B8
102
{ACAD_REACTORS
330
2B7
102
}
330
2B7
100
AcDbXrecord
280
     1
102
RTVSPropertyOp0
 70
     1
102
RTVSPropertyOp1
 70
     1
102
RTVSPropertyOp2
 70
     1
102
RTVSPropertyOp3
 70
     1
102
RTVSPropertyOp4
 70
     1
102
RTVSPropertyOp5
 70
     1
102
RTVSPropertyOp6
 70
     1
102
RTVSPropertyOp7
 70
     1
102
RTVSPropertyOp8
 70
     1
102
RTVSPropertyOp9
 70
     1
102
RTVSPropertyOp10
 70
     1
102
RTVSPropertyOp11
 70
     1
102
RTVSPropertyOp12
 70
     1
102
RTVSPropertyOp13
 70
     1
102
RTVSPropertyOp14
 70
     1
102
RTVSPropertyOp15
 70
     1
102
RTVSPropertyOp16
 70
     1
102
RTVSPropertyOp17
 70
     1
102
RTVSPropertyOp18
 70
     1
102
RTVSPropertyOp19
 70
     1
102
RTVSPropertyOp20
 70
     1
102
RTVSPropertyOp21
 70
     1
102
RTVSPropertyOp22
 70
     1
102
RTVSPropertyOp23
 70
     1
102
RTVSPropertyOp24
 70
     1
102
RTVSPropertyOp25
 70
     1
102
RTVSPropertyOp26
 70
     1
102
RTVSPropertyOp27
 70
     1
102
RTVSPropertyOp28
 70
     1
102
RTVSPropertyOp29
 70
     1
102
RTVSPropertyOp30
 70
     1
102
RTVSPropertyOp31
 70
     1
102
RTVSPropertyOp32
 70
     1
102
RTVSPropertyOp33
 70
     1
102
RTVSPropertyOp34
 70
     1
102
RTVSPropertyOp35
 70
     1
102
RTVSPropertyOp36
 70
     1
102
RTVSPropertyOp37
 70
     1
102
RTVSPropertyOp38
 70
     1
102
RTVSPropertyOp39
 70
     1
102
RTVSPropertyOp40
 70
     1
102
RTVSPropertyOp41
 70
     1
102
RTVSPropertyOp42
 70
     1
102
RTVSPropertyOp43
 70
     1
102
RTVSPropertyOp44
 70
     1
102
RTVSPropertyOp45
 70
     1
102
RTVSPropertyOp46
 70
     1
102
RTVSPropertyOp47
 70
     1
102
RTVSPropertyOp48
 70
     1
102
RTVSPropertyOp49
 70
     1
102
RTVSPropertyOp50
 70
     1
102
RTVSPropertyOp51
 70
     0
102
RTVSPropertyOp52
 70
     0
102
RTVSPropertyOp53
 70
     1
102
RTVSPropertyOp54
 70
     1
102
RTVSPropertyOp55
 70
     1
102
RTVSPropertyOp56
 70
     1
102
RTVSPropertyOp57
 70
     1
102
RTVSPost2010Prop28
280
     0
102
RTVSPost2010PropOp28
 70
     1
102
RTVSPost2010Prop29
280
     1
102
RTVSPost2010PropOp29
 70
     1
102
RTVSPost2010Prop30
280
     1
102
RTVSPost2010PropOp30
 70
     1
102
RTVSPost2010Prop31
280
     0
102
RTVSPost2010PropOp31
 70
     1
102
RTVSPost2010Prop32
280
     0
102
RTVSPost2010PropOp32
 70
     1
102
RTVSPost2010Prop33
280
     0
102
RTVSPost2010PropOp33
 70
     1
102
RTVSPost2010Prop34
280
     0
102
RTVSPost2010PropOp34
 70
     1
102
RTVSPost2010Prop35
280
     0
102
RTVSPost2010PropOp35
 70
     1
102
RTVSPost2010Prop36
280
     0
102
RTVSPost2010PropOp36
 70
     1
102
RTVSPost2010Prop37
 90
       50
102
RTVSPost2010PropOp37
 70
     1
102
RTVSPost2010Prop38
140
0.0
102
RTVSPost2010PropOp38
 70
     1
102
RTVSPost2010Prop39
140
1.0
102
RTVSPost2010PropOp39
 70
     1
102
RTVSPost2010Prop40
 90
        0
102
RTVSPost2010PropOp40
 70
     1
102
RTVSPost2010Prop41ColorIndex
 90
       18
102
RTVSPost2010Prop41ColorRGB
 90
        0
102
RTVSPost2010PropOp41
 70
     1
102
RTVSPost2010Prop42
 90
       50
102
RTVSPost2010PropOp42
 70
     1
102
RTVSPost2010Prop43
 90
        3
102
RTVSPost2010PropOp43
 70
     1
102
RTVSPost2010Prop44ColorIndex
 90
        5
102
RTVSPost2010Prop44ColorRGB
 90
      255
102
RTVSPost2010PropOp44
 70
     1
102
RTVSPost2010Prop45
280
     0
102
RTVSPost2010PropOp45
 70
     1
102
RTVSPost2010Prop46
 90
       50
102
RTVSPost2010PropOp46
 70
     1
102
RTVSPost2010Prop47
 90
       50
102
RTVSPost2010PropOp47
 70
     1
102
RTVSPost2010Prop48
 90
       50
102
RTVSPost2010PropOp48
 70
     1
102
RTVSPost2010Prop49
280
     0
102
RTVSPost2010PropOp49
 70
     1
102
RTVSPost2010Prop50
 90
       50
102
RTVSPost2010PropOp50
 70
     1
102
RTVSPost2010Prop51ColorIndex
 90
      256
102
RTVSPost2010Prop51ColorRGB
 90
-16777216
102
RTVSPost2010PropOp51
 70
     0
102
RTVSPost2010Prop52
140
1.0
102
RTVSPost2010PropOp52
 70
     0
102
RTVSPost2010Prop53
 90
        2
102
RTVSPost2010PropOp53
 70
     1
102
RTVSPost2010Prop54
  1
strokes_ogs.tif
102
RTVSPost2010PropOp54
 70
     1
102
RTVSPost2010Prop55
280
     0
102
RTVSPost2010PropOp55
 70
     1
102
RTVSPost2010Prop56
140
1.0
102
RTVSPost2010PropOp56
 70
     1
102
RTVSPost2010Prop57
140
1.0
102
RTVSPost2010PropOp57
 70
     1
  0
XRECORD
  5
2BE
102
{ACAD_REACTORS
330
2BD
102
}
330
2BD
100
AcDbXrecord
280
     1
102
RTVSPropertyOp0
 70
     1
102
RTVSPropertyOp1
 70
     1
102
RTVSPropertyOp2
 70
     1
102
RTVSPropertyOp3
 70
     1
102
RTVSPropertyOp4
 70
     1
102
RTVSPropertyOp5
 70
     1
102
RTVSPropertyOp6
 70
     1
102
RTVSPropertyOp7
 70
     1
102
RTVSPropertyOp8
 70
     1
102
RTVSPropertyOp9
 70
     1
102
RTVSPropertyOp10
 70
     1
102
RTVSPropertyOp11
 70
     1
102
RTVSPropertyOp12
 70
     1
102
RTVSPropertyOp13
 70
     1
102
RTVSPropertyOp14
 70
     1
102
RTVSPropertyOp15
 70
     1
102
RTVSPropertyOp16
 70
     1
102
RTVSPropertyOp17
 70
     1
102
RTVSPropertyOp18
 70
     1
102
RTVSPropertyOp19
 70
     1
102
RTVSPropertyOp20
 70
     1
102
RTVSPropertyOp21
 70
     1
102
RTVSPropertyOp22
 70
     1
102
RTVSPropertyOp23
 70
     1
102
RTVSPropertyOp24
 70
     1
102
RTVSPropertyOp25
 70
     1
102
RTVSPropertyOp26
 70
     1
102
RTVSPropertyOp27
 70
     1
102
RTVSPropertyOp28
 70
     1
102
RTVSPropertyOp29
 70
     1
102
RTVSPropertyOp30
 70
     1
102
RTVSPropertyOp31
 70
     1
102
RTVSPropertyOp32
 70
     1
102
RTVSPropertyOp33
 70
     1
102
RTVSPropertyOp34
 70
     1
102
RTVSPropertyOp35
 70
     1
102
RTVSPropertyOp36
 70
     1
102
RTVSPropertyOp37
 70
     1
102
RTVSPropertyOp38
 70
     1
102
RTVSPropertyOp39
 70
     1
102
RTVSPropertyOp40
 70
     1
102
RTVSPropertyOp41
 70
     1
102
RTVSPropertyOp42
 70
     1
102
RTVSPropertyOp43
 70
     1
102
RTVSPropertyOp44
 70
     1
102
RTVSPropertyOp45
 70
     1
102
RTVSPropertyOp46
 70
     1
102
RTVSPropertyOp47
 70
     1
102
RTVSPropertyOp48
 70
     1
102
RTVSPropertyOp49
 70
     1
102
RTVSPropertyOp50
 70
     1
102
RTVSPropertyOp51
 70
     0
102
RTVSPropertyOp52
 70
     0
102
RTVSPropertyOp53
 70
     1
102
RTVSPropertyOp54
 70
     1
102
RTVSPropertyOp55
 70
     1
102
RTVSPropertyOp56
 70
     1
102
RTVSPropertyOp57
 70
     1
102
RTVSPost2010Prop28
280
     0
102
RTVSPost2010PropOp28
 70
     1
102
RTVSPost2010Prop29
280
     1
102
RTVSPost2010PropOp29
 70
     1
102
RTVSPost2010Prop30
280
     1
102
RTVSPost2010PropOp30
 70
     1
102
RTVSPost2010Prop31
280
     0
102
RTVSPost2010PropOp31
 70
     1
102
RTVSPost2010Prop32
280
     0
102
RTVSPost2010PropOp32
 70
     1
102
RTVSPost2010Prop33
280
     0
102
RTVSPost2010PropOp33
 70
     1
102
RTVSPost2010Prop34
280
     0
102
RTVSPost2010PropOp34
 70
     1
102
RTVSPost2010Prop35
280
     0
102
RTVSPost2010PropOp35
 70
     1
102
RTVSPost2010Prop36
280
     0
102
RTVSPost2010PropOp36
 70
     1
102
RTVSPost2010Prop37
 90
       50
102
RTVSPost2010PropOp37
 70
     1
102
RTVSPost2010Prop38
140
0.0
102
RTVSPost2010PropOp38
 70
     1
102
RTVSPost2010Prop39
140
1.0
102
RTVSPost2010PropOp39
 70
     1
102
RTVSPost2010Prop40
 90
        0
102
RTVSPost2010PropOp40
 70
     1
102
RTVSPost2010Prop41ColorIndex
 90
       18
102
RTVSPost2010Prop41ColorRGB
 90
        0
102
RTVSPost2010PropOp41
 70
     1
102
RTVSPost2010Prop42
 90
       50
102
RTVSPost2010PropOp42
 70
     1
102
RTVSPost2010Prop43
 90
        3
102
RTVSPost2010PropOp43
 70
     1
102
RTVSPost2010Prop44ColorIndex
 90
        5
102
RTVSPost2010Prop44ColorRGB
 90
      255
102
RTVSPost2010PropOp44
 70
     1
102
RTVSPost2010Prop45
280
     0
102
RTVSPost2010PropOp45
 70
     1
102
RTVSPost2010Prop46
 90
       50
102
RTVSPost2010PropOp46
 70
     1
102
RTVSPost2010Prop47
 90
       50
102
RTVSPost2010PropOp47
 70
     1
102
RTVSPost2010Prop48
 90
       50
102
RTVSPost2010PropOp48
 70
     1
102
RTVSPost2010Prop49
280
     0
102
RTVSPost2010PropOp49
 70
     1
102
RTVSPost2010Prop50
 90
       50
102
RTVSPost2010PropOp50
 70
     1
102
RTVSPost2010Prop51ColorIndex
 90
      256
102
RTVSPost2010Prop51ColorRGB
 90
-16777216
102
RTVSPost2010PropOp51
 70
     0
102
RTVSPost2010Prop52
140
1.0
102
RTVSPost2010PropOp52
 70
     0
102
RTVSPost2010Prop53
 90
        2
102
RTVSPost2010PropOp53
 70
     1
102
RTVSPost2010Prop54
  1
strokes_ogs.tif
102
RTVSPost2010PropOp54
 70
     1
102
RTVSPost2010Prop55
280
     0
102
RTVSPost2010PropOp55
 70
     1
102
RTVSPost2010Prop56
140
1.0
102
RTVSPost2010PropOp56
 70
     1
102
RTVSPost2010Prop57
140
1.0
102
RTVSPost2010PropOp57
 70
     1
  0
XRECORD
  5
2D2
102
{ACAD_REACTORS
330
2D1
102
}
330
2D1
100
AcDbXrecord
280
     1
102
RTVSPropertyOp0
 70
     0
102
RTVSPropertyOp1
 70
     0
102
RTVSPropertyOp2
 70
     0
102
RTVSPropertyOp3
 70
     0
102
RTVSPropertyOp4
 70
     0
102
RTVSPropertyOp5
 70
     0
102
RTVSPropertyOp6
 70
     0
102
RTVSPropertyOp7
 70
     0
102
RTVSPropertyOp8
 70
     0
102
RTVSPropertyOp9
 70
     0
102
RTVSPropertyOp10
 70
     0
102
RTVSPropertyOp11
 70
     0
102
RTVSPropertyOp12
 70
     0
102
RTVSPropertyOp13
 70
     0
102
RTVSPropertyOp14
 70
     2
102
RTVSPropertyOp15
 70
     0
102
RTVSPropertyOp16
 70
     0
102
RTVSPropertyOp17
 70
     0
102
RTVSPropertyOp18
 70
     0
102
RTVSPropertyOp19
 70
     0
102
RTVSPropertyOp20
 70
     0
102
RTVSPropertyOp21
 70
     0
102
RTVSPropertyOp22
 70
     0
102
RTVSPropertyOp23
 70
     0
102
RTVSPropertyOp24
 70
     0
102
RTVSPropertyOp25
 70
     0
102
RTVSPropertyOp26
 70
     0
102
RTVSPropertyOp27
 70
     0
102
RTVSPropertyOp28
 70
     0
102
RTVSPropertyOp29
 70
     0
102
RTVSPropertyOp30
 70
     0
102
RTVSPropertyOp31
 70
     0
102
RTVSPropertyOp32
 70
     0
102
RTVSPropertyOp33
 70
     0
102
RTVSPropertyOp34
 70
     0
102
RTVSPropertyOp35
 70
     0
102
RTVSPropertyOp36
 70
     0
102
RTVSPropertyOp37
 70
     0
102
RTVSPropertyOp38
 70
     0
102
RTVSPropertyOp39
 70
     0
102
RTVSPropertyOp40
 70
     0
102
RTVSPropertyOp41
 70
     0
102
RTVSPropertyOp42
 70
     0
102
RTVSPropertyOp43
 70
     0
102
RTVSPropertyOp44
 70
     0
102
RTVSPropertyOp45
 70
     0
102
RTVSPropertyOp46
 70
     0
102
RTVSPropertyOp47
 70
     0
102
RTVSPropertyOp48
 70
     0
102
RTVSPropertyOp49
 70
     0
102
RTVSPropertyOp50
 70
     0
102
RTVSPropertyOp51
 70
     0
102
RTVSPropertyOp52
 70
     0
102
RTVSPropertyOp53
 70
     0
102
RTVSPropertyOp54
 70
     0
102
RTVSPropertyOp55
 70
     0
102
RTVSPropertyOp56
 70
     0
102
RTVSPropertyOp57
 70
     0
102
RTVSPost2010Prop28
280
     0
102
RTVSPost2010PropOp28
 70
     0
102
RTVSPost2010Prop29
280
     1
102
RTVSPost2010PropOp29
 70
     0
102
RTVSPost2010Prop30
280
     1
102
RTVSPost2010PropOp30
 70
     0
102
RTVSPost2010Prop31
280
     0
102
RTVSPost2010PropOp31
 70
     0
102
RTVSPost2010Prop32
280
     0
102
RTVSPost2010PropOp32
 70
     0
102
RTVSPost2010Prop33
280
     0
102
RTVSPost2010PropOp33
 70
     0
102
RTVSPost2010Prop34
280
     0
102
RTVSPost2010PropOp34
 70
     0
102
RTVSPost2010Prop35
280
     0
102
RTVSPost2010PropOp35
 70
     0
102
RTVSPost2010Prop36
280
     0
102
RTVSPost2010PropOp36
 70
     0
102
RTVSPost2010Prop37
 90
       50
102
RTVSPost2010PropOp37
 70
     0
102
RTVSPost2010Prop38
140
0.0
102
RTVSPost2010PropOp38
 70
     0
102
RTVSPost2010Prop39
140
1.0
102
RTVSPost2010PropOp39
 70
     0
102
RTVSPost2010Prop40
 90
        0
102
RTVSPost2010PropOp40
 70
     0
102
RTVSPost2010Prop41ColorIndex
 90
       18
102
RTVSPost2010Prop41ColorRGB
 90
        0
102
RTVSPost2010PropOp41
 70
     0
102
RTVSPost2010Prop42
 90
       50
102
RTVSPost2010PropOp42
 70
     0
102
RTVSPost2010Prop43
 90
        3
102
RTVSPost2010PropOp43
 70
     0
102
RTVSPost2010Prop44ColorIndex
 90
        5
102
RTVSPost2010Prop44ColorRGB
 90
      255
102
RTVSPost2010PropOp44
 70
     0
102
RTVSPost2010Prop45
280
     0
102
RTVSPost2010PropOp45
 70
     0
102
RTVSPost2010Prop46
 90
       50
102
RTVSPost2010PropOp46
 70
     0
102
RTVSPost2010Prop47
 90
       50
102
RTVSPost2010PropOp47
 70
     0
102
RTVSPost2010Prop48
 90
       50
102
RTVSPost2010PropOp48
 70
     0
102
RTVSPost2010Prop49
280
     0
102
RTVSPost2010PropOp49
 70
     0
102
RTVSPost2010Prop50
 90
       50
102
RTVSPost2010PropOp50
 70
     0
102
RTVSPost2010Prop51ColorIndex
 90
      256
102
RTVSPost2010Prop51ColorRGB
 90
-16777216
102
RTVSPost2010PropOp51
 70
     0
102
RTVSPost2010Prop52
140
1.0
102
RTVSPost2010PropOp52
 70
     0
102
RTVSPost2010Prop53
 90
        2
102
RTVSPost2010PropOp53
 70
     0
102
RTVSPost2010Prop54
  1
strokes_ogs.tif
102
RTVSPost2010PropOp54
 70
     0
102
RTVSPost2010Prop55
280
     0
102
RTVSPost2010PropOp55
 70
     0
102
RTVSPost2010Prop56
140
1.0
102
RTVSPost2010PropOp56
 70
     0
102
RTVSPost2010Prop57
140
1.0
102
RTVSPost2010PropOp57
 70
     0
  0
XRECORD
  5
2CC
102
{ACAD_REACTORS
330
2CB
102
}
330
2CB
100
AcDbXrecord
280
     1
102
RTVSPropertyOp0
 70
     1
102
RTVSPropertyOp1
 70
     1
102
RTVSPropertyOp2
 70
     1
102
RTVSPropertyOp3
 70
     1
102
RTVSPropertyOp4
 70
     1
102
RTVSPropertyOp5
 70
     1
102
RTVSPropertyOp6
 70
     1
102
RTVSPropertyOp7
 70
     1
102
RTVSPropertyOp8
 70
     1
102
RTVSPropertyOp9
 70
     1
102
RTVSPropertyOp10
 70
     1
102
RTVSPropertyOp11
 70
     1
102
RTVSPropertyOp12
 70
     1
102
RTVSPropertyOp13
 70
     1
102
RTVSPropertyOp14
 70
     1
102
RTVSPropertyOp15
 70
     1
102
RTVSPropertyOp16
 70
     1
102
RTVSPropertyOp17
 70
     1
102
RTVSPropertyOp18
 70
     1
102
RTVSPropertyOp19
 70
     1
102
RTVSPropertyOp20
 70
     1
102
RTVSPropertyOp21
 70
     1
102
RTVSPropertyOp22
 70
     1
102
RTVSPropertyOp23
 70
     1
102
RTVSPropertyOp24
 70
     1
102
RTVSPropertyOp25
 70
     1
102
RTVSPropertyOp26
 70
     1
102
RTVSPropertyOp27
 70
     1
102
RTVSPropertyOp28
 70
     1
102
RTVSPropertyOp29
 70
     1
102
RTVSPropertyOp30
 70
     1
102
RTVSPropertyOp31
 70
     1
102
RTVSPropertyOp32
 70
     1
102
RTVSPropertyOp33
 70
     1
102
RTVSPropertyOp34
 70
     1
102
RTVSPropertyOp35
 70
     1
102
RTVSPropertyOp36
 70
     1
102
RTVSPropertyOp37
 70
     1
102
RTVSPropertyOp38
 70
     1
102
RTVSPropertyOp39
 70
     1
102
RTVSPropertyOp40
 70
     1
102
RTVSPropertyOp41
 70
     1
102
RTVSPropertyOp42
 70
     1
102
RTVSPropertyOp43
 70
     1
102
RTVSPropertyOp44
 70
     1
102
RTVSPropertyOp45
 70
     1
102
RTVSPropertyOp46
 70
     1
102
RTVSPropertyOp47
 70
     1
102
RTVSPropertyOp48
 70
     1
102
RTVSPropertyOp49
 70
     1
102
RTVSPropertyOp50
 70
     1
102
RTVSPropertyOp51
 70
     0
102
RTVSPropertyOp52
 70
     0
102
RTVSPropertyOp53
 70
     1
102
RTVSPropertyOp54
 70
     1
102
RTVSPropertyOp55
 70
     1
102
RTVSPropertyOp56
 70
     1
102
RTVSPropertyOp57
 70
     1
102
RTVSPost2010Prop28
280
     0
102
RTVSPost2010PropOp28
 70
     1
102
RTVSPost2010Prop29
280
     1
102
RTVSPost2010PropOp29
 70
     1
102
RTVSPost2010Prop30
280
     1
102
RTVSPost2010PropOp30
 70
     1
102
RTVSPost2010Prop31
280
     0
102
RTVSPost2010PropOp31
 70
     1
102
RTVSPost2010Prop32
280
     0
102
RTVSPost2010PropOp32
 70
     1
102
RTVSPost2010Prop33
280
     0
102
RTVSPost2010PropOp33
 70
     1
102
RTVSPost2010Prop34
280
     0
102
RTVSPost2010PropOp34
 70
     1
102
RTVSPost2010Prop35
280
     0
102
RTVSPost2010PropOp35
 70
     1
102
RTVSPost2010Prop36
280
     0
102
RTVSPost2010PropOp36
 70
     1
102
RTVSPost2010Prop37
 90
       50
102
RTVSPost2010PropOp37
 70
     1
102
RTVSPost2010Prop38
140
0.0
102
RTVSPost2010PropOp38
 70
     1
102
RTVSPost2010Prop39
140
1.0
102
RTVSPost2010PropOp39
 70
     1
102
RTVSPost2010Prop40
 90
        0
102
RTVSPost2010PropOp40
 70
     1
102
RTVSPost2010Prop41ColorIndex
 90
       18
102
RTVSPost2010Prop41ColorRGB
 90
        0
102
RTVSPost2010PropOp41
 70
     1
102
RTVSPost2010Prop42
 90
       50
102
RTVSPost2010PropOp42
 70
     1
102
RTVSPost2010Prop43
 90
        3
102
RTVSPost2010PropOp43
 70
     1
102
RTVSPost2010Prop44ColorIndex
 90
        5
102
RTVSPost2010Prop44ColorRGB
 90
      255
102
RTVSPost2010PropOp44
 70
     1
102
RTVSPost2010Prop45
280
     0
102
RTVSPost2010PropOp45
 70
     1
102
RTVSPost2010Prop46
 90
       50
102
RTVSPost2010PropOp46
 70
     1
102
RTVSPost2010Prop47
 90
       50
102
RTVSPost2010PropOp47
 70
     1
102
RTVSPost2010Prop48
 90
       50
102
RTVSPost2010PropOp48
 70
     1
102
RTVSPost2010Prop49
280
     0
102
RTVSPost2010PropOp49
 70
     1
102
RTVSPost2010Prop50
 90
       50
102
RTVSPost2010PropOp50
 70
     1
102
RTVSPost2010Prop51ColorIndex
 90
      256
102
RTVSPost2010Prop51ColorRGB
 90
-16777216
102
RTVSPost2010PropOp51
 70
     0
102
RTVSPost2010Prop52
140
1.0
102
RTVSPost2010PropOp52
 70
     0
102
RTVSPost2010Prop53
 90
        2
102
RTVSPost2010PropOp53
 70
     1
102
RTVSPost2010Prop54
  1
strokes_ogs.tif
102
RTVSPost2010PropOp54
 70
     1
102
RTVSPost2010Prop55
280
     0
102
RTVSPost2010PropOp55
 70
     1
102
RTVSPost2010Prop56
140
1.0
102
RTVSPost2010PropOp56
 70
     1
102
RTVSPost2010Prop57
140
1.0
102
RTVSPost2010PropOp57
 70
     1
  0
XRECORD
  5
2D4
102
{ACAD_REACTORS
330
2D3
102
}
330
2D3
100
AcDbXrecord
280
     1
102
RTVSPropertyOp0
 70
     0
102
RTVSPropertyOp1
 70
     0
102
RTVSPropertyOp2
 70
     0
102
RTVSPropertyOp3
 70
     0
102
RTVSPropertyOp4
 70
     0
102
RTVSPropertyOp5
 70
     0
102
RTVSPropertyOp6
 70
     0
102
RTVSPropertyOp7
 70
     0
102
RTVSPropertyOp8
 70
     0
102
RTVSPropertyOp9
 70
     0
102
RTVSPropertyOp10
 70
     0
102
RTVSPropertyOp11
 70
     0
102
RTVSPropertyOp12
 70
     0
102
RTVSPropertyOp13
 70
     0
102
RTVSPropertyOp14
 70
     2
102
RTVSPropertyOp15
 70
     0
102
RTVSPropertyOp16
 70
     0
102
RTVSPropertyOp17
 70
     0
102
RTVSPropertyOp18
 70
     0
102
RTVSPropertyOp19
 70
     0
102
RTVSPropertyOp20
 70
     0
102
RTVSPropertyOp21
 70
     0
102
RTVSPropertyOp22
 70
     0
102
RTVSPropertyOp23
 70
     0
102
RTVSPropertyOp24
 70
     0
102
RTVSPropertyOp25
 70
     0
102
RTVSPropertyOp26
 70
     0
102
RTVSPropertyOp27
 70
     0
102
RTVSPropertyOp28
 70
     0
102
RTVSPropertyOp29
 70
     0
102
RTVSPropertyOp30
 70
     0
102
RTVSPropertyOp31
 70
     0
102
RTVSPropertyOp32
 70
     0
102
RTVSPropertyOp33
 70
     0
102
RTVSPropertyOp34
 70
     0
102
RTVSPropertyOp35
 70
     0
102
RTVSPropertyOp36
 70
     0
102
RTVSPropertyOp37
 70
     0
102
RTVSPropertyOp38
 70
     0
102
RTVSPropertyOp39
 70
     0
102
RTVSPropertyOp40
 70
     0
102
RTVSPropertyOp41
 70
     0
102
RTVSPropertyOp42
 70
     0
102
RTVSPropertyOp43
 70
     0
102
RTVSPropertyOp44
 70
     0
102
RTVSPropertyOp45
 70
     0
102
RTVSPropertyOp46
 70
     0
102
RTVSPropertyOp47
 70
     0
102
RTVSPropertyOp48
 70
     0
102
RTVSPropertyOp49
 70
     0
102
RTVSPropertyOp50
 70
     0
102
RTVSPropertyOp51
 70
     0
102
RTVSPropertyOp52
 70
     0
102
RTVSPropertyOp53
 70
     0
102
RTVSPropertyOp54
 70
     0
102
RTVSPropertyOp55
 70
     0
102
RTVSPropertyOp56
 70
     0
102
RTVSPropertyOp57
 70
     0
102
RTVSPost2010Prop28
280
     0
102
RTVSPost2010PropOp28
 70
     0
102
RTVSPost2010Prop29
280
     1
102
RTVSPost2010PropOp29
 70
     0
102
RTVSPost2010Prop30
280
     1
102
RTVSPost2010PropOp30
 70
     0
102
RTVSPost2010Prop31
280
     0
102
RTVSPost2010PropOp31
 70
     0
102
RTVSPost2010Prop32
280
     0
102
RTVSPost2010PropOp32
 70
     0
102
RTVSPost2010Prop33
280
     0
102
RTVSPost2010PropOp33
 70
     0
102
RTVSPost2010Prop34
280
     0
102
RTVSPost2010PropOp34
 70
     0
102
RTVSPost2010Prop35
280
     0
102
RTVSPost2010PropOp35
 70
     0
102
RTVSPost2010Prop36
280
     0
102
RTVSPost2010PropOp36
 70
     0
102
RTVSPost2010Prop37
 90
       50
102
RTVSPost2010PropOp37
 70
     0
102
RTVSPost2010Prop38
140
0.0
102
RTVSPost2010PropOp38
 70
     0
102
RTVSPost2010Prop39
140
1.0
102
RTVSPost2010PropOp39
 70
     0
102
RTVSPost2010Prop40
 90
        0
102
RTVSPost2010PropOp40
 70
     0
102
RTVSPost2010Prop41ColorIndex
 90
       18
102
RTVSPost2010Prop41ColorRGB
 90
        0
102
RTVSPost2010PropOp41
 70
     0
102
RTVSPost2010Prop42
 90
       50
102
RTVSPost2010PropOp42
 70
     0
102
RTVSPost2010Prop43
 90
        3
102
RTVSPost2010PropOp43
 70
     0
102
RTVSPost2010Prop44ColorIndex
 90
        5
102
RTVSPost2010Prop44ColorRGB
 90
      255
102
RTVSPost2010PropOp44
 70
     0
102
RTVSPost2010Prop45
280
     0
102
RTVSPost2010PropOp45
 70
     0
102
RTVSPost2010Prop46
 90
       50
102
RTVSPost2010PropOp46
 70
     0
102
RTVSPost2010Prop47
 90
       50
102
RTVSPost2010PropOp47
 70
     0
102
RTVSPost2010Prop48
 90
       50
102
RTVSPost2010PropOp48
 70
     0
102
RTVSPost2010Prop49
280
     0
102
RTVSPost2010PropOp49
 70
     0
102
RTVSPost2010Prop50
 90
       50
102
RTVSPost2010PropOp50
 70
     0
102
RTVSPost2010Prop51ColorIndex
 90
      256
102
RTVSPost2010Prop51ColorRGB
 90
-16777216
102
RTVSPost2010PropOp51
 70
     0
102
RTVSPost2010Prop52
140
1.0
102
RTVSPost2010PropOp52
 70
     0
102
RTVSPost2010Prop53
 90
        2
102
RTVSPost2010PropOp53
 70
     0
102
RTVSPost2010Prop54
  1
strokes_ogs.tif
102
RTVSPost2010PropOp54
 70
     0
102
RTVSPost2010Prop55
280
     0
102
RTVSPost2010PropOp55
 70
     0
102
RTVSPost2010Prop56
140
1.0
102
RTVSPost2010PropOp56
 70
     0
102
RTVSPost2010Prop57
140
1.0
102
RTVSPost2010PropOp57
 70
     0
  0
XRECORD
  5
2C2
102
{ACAD_REACTORS
330
2C1
102
}
330
2C1
100
AcDbXrecord
280
     1
102
RTVSPropertyOp0
 70
     1
102
RTVSPropertyOp1
 70
     1
102
RTVSPropertyOp2
 70
     1
102
RTVSPropertyOp3
 70
     1
102
RTVSPropertyOp4
 70
     1
102
RTVSPropertyOp5
 70
     1
102
RTVSPropertyOp6
 70
     1
102
RTVSPropertyOp7
 70
     1
102
RTVSPropertyOp8
 70
     1
102
RTVSPropertyOp9
 70
     1
102
RTVSPropertyOp10
 70
     1
102
RTVSPropertyOp11
 70
     1
102
RTVSPropertyOp12
 70
     1
102
RTVSPropertyOp13
 70
     1
102
RTVSPropertyOp14
 70
     1
102
RTVSPropertyOp15
 70
     1
102
RTVSPropertyOp16
 70
     1
102
RTVSPropertyOp17
 70
     1
102
RTVSPropertyOp18
 70
     1
102
RTVSPropertyOp19
 70
     1
102
RTVSPropertyOp20
 70
     1
102
RTVSPropertyOp21
 70
     1
102
RTVSPropertyOp22
 70
     1
102
RTVSPropertyOp23
 70
     1
102
RTVSPropertyOp24
 70
     1
102
RTVSPropertyOp25
 70
     1
102
RTVSPropertyOp26
 70
     1
102
RTVSPropertyOp27
 70
     1
102
RTVSPropertyOp28
 70
     1
102
RTVSPropertyOp29
 70
     1
102
RTVSPropertyOp30
 70
     1
102
RTVSPropertyOp31
 70
     1
102
RTVSPropertyOp32
 70
     1
102
RTVSPropertyOp33
 70
     1
102
RTVSPropertyOp34
 70
     1
102
RTVSPropertyOp35
 70
     1
102
RTVSPropertyOp36
 70
     1
102
RTVSPropertyOp37
 70
     1
102
RTVSPropertyOp38
 70
     1
102
RTVSPropertyOp39
 70
     1
102
RTVSPropertyOp40
 70
     1
102
RTVSPropertyOp41
 70
     1
102
RTVSPropertyOp42
 70
     1
102
RTVSPropertyOp43
 70
     1
102
RTVSPropertyOp44
 70
     1
102
RTVSPropertyOp45
 70
     1
102
RTVSPropertyOp46
 70
     1
102
RTVSPropertyOp47
 70
     1
102
RTVSPropertyOp48
 70
     1
102
RTVSPropertyOp49
 70
     1
102
RTVSPropertyOp50
 70
     1
102
RTVSPropertyOp51
 70
     0
102
RTVSPropertyOp52
 70
     0
102
RTVSPropertyOp53
 70
     1
102
RTVSPropertyOp54
 70
     1
102
RTVSPropertyOp55
 70
     1
102
RTVSPropertyOp56
 70
     1
102
RTVSPropertyOp57
 70
     1
102
RTVSPost2010Prop28
280
     0
102
RTVSPost2010PropOp28
 70
     1
102
RTVSPost2010Prop29
280
     1
102
RTVSPost2010PropOp29
 70
     1
102
RTVSPost2010Prop30
280
     1
102
RTVSPost2010PropOp30
 70
     1
102
RTVSPost2010Prop31
280
     0
102
RTVSPost2010PropOp31
 70
     1
102
RTVSPost2010Prop32
280
     0
102
RTVSPost2010PropOp32
 70
     1
102
RTVSPost2010Prop33
280
     0
102
RTVSPost2010PropOp33
 70
     1
102
RTVSPost2010Prop34
280
     0
102
RTVSPost2010PropOp34
 70
     1
102
RTVSPost2010Prop35
280
     0
102
RTVSPost2010PropOp35
 70
     1
102
RTVSPost2010Prop36
280
     0
102
RTVSPost2010PropOp36
 70
     1
102
RTVSPost2010Prop37
 90
       50
102
RTVSPost2010PropOp37
 70
     1
102
RTVSPost2010Prop38
140
0.0
102
RTVSPost2010PropOp38
 70
     1
102
RTVSPost2010Prop39
140
1.0
102
RTVSPost2010PropOp39
 70
     1
102
RTVSPost2010Prop40
 90
        0
102
RTVSPost2010PropOp40
 70
     1
102
RTVSPost2010Prop41ColorIndex
 90
       18
102
RTVSPost2010Prop41ColorRGB
 90
        0
102
RTVSPost2010PropOp41
 70
     1
102
RTVSPost2010Prop42
 90
       50
102
RTVSPost2010PropOp42
 70
     1
102
RTVSPost2010Prop43
 90
        3
102
RTVSPost2010PropOp43
 70
     1
102
RTVSPost2010Prop44ColorIndex
 90
        5
102
RTVSPost2010Prop44ColorRGB
 90
      255
102
RTVSPost2010PropOp44
 70
     1
102
RTVSPost2010Prop45
280
     0
102
RTVSPost2010PropOp45
 70
     1
102
RTVSPost2010Prop46
 90
       50
102
RTVSPost2010PropOp46
 70
     1
102
RTVSPost2010Prop47
 90
       50
102
RTVSPost2010PropOp47
 70
     1
102
RTVSPost2010Prop48
 90
       50
102
RTVSPost2010PropOp48
 70
     1
102
RTVSPost2010Prop49
280
     0
102
RTVSPost2010PropOp49
 70
     1
102
RTVSPost2010Prop50
 90
       50
102
RTVSPost2010PropOp50
 70
     1
102
RTVSPost2010Prop51ColorIndex
 90
      256
102
RTVSPost2010Prop51ColorRGB
 90
-16777216
102
RTVSPost2010PropOp51
 70
     0
102
RTVSPost2010Prop52
140
1.0
102
RTVSPost2010PropOp52
 70
     0
102
RTVSPost2010Prop53
 90
        2
102
RTVSPost2010PropOp53
 70
     1
102
RTVSPost2010Prop54
  1
strokes_ogs.tif
102
RTVSPost2010PropOp54
 70
     1
102
RTVSPost2010Prop55
280
     0
102
RTVSPost2010PropOp55
 70
     1
102
RTVSPost2010Prop56
140
1.0
102
RTVSPost2010PropOp56
 70
     1
102
RTVSPost2010Prop57
140
1.0
102
RTVSPost2010PropOp57
 70
     1
  0
XRECORD
  5
2E0
102
{ACAD_REACTORS
330
2DF
102
}
330
2DF
100
AcDbXrecord
280
     1
102
RTVSPropertyOp0
 70
     1
102
RTVSPropertyOp1
 70
     1
102
RTVSPropertyOp2
 70
     1
102
RTVSPropertyOp3
 70
     1
102
RTVSPropertyOp4
 70
     1
102
RTVSPropertyOp5
 70
     1
102
RTVSPropertyOp6
 70
     1
102
RTVSPropertyOp7
 70
     1
102
RTVSPropertyOp8
 70
     1
102
RTVSPropertyOp9
 70
     1
102
RTVSPropertyOp10
 70
     1
102
RTVSPropertyOp11
 70
     1
102
RTVSPropertyOp12
 70
     1
102
RTVSPropertyOp13
 70
     1
102
RTVSPropertyOp14
 70
     1
102
RTVSPropertyOp15
 70
     1
102
RTVSPropertyOp16
 70
     1
102
RTVSPropertyOp17
 70
     1
102
RTVSPropertyOp18
 70
     1
102
RTVSPropertyOp19
 70
     1
102
RTVSPropertyOp20
 70
     1
102
RTVSPropertyOp21
 70
     1
102
RTVSPropertyOp22
 70
     1
102
RTVSPropertyOp23
 70
     1
102
RTVSPropertyOp24
 70
     1
102
RTVSPropertyOp25
 70
     1
102
RTVSPropertyOp26
 70
     1
102
RTVSPropertyOp27
 70
     1
102
RTVSPropertyOp28
 70
     1
102
RTVSPropertyOp29
 70
     1
102
RTVSPropertyOp30
 70
     1
102
RTVSPropertyOp31
 70
     1
102
RTVSPropertyOp32
 70
     1
102
RTVSPropertyOp33
 70
     1
102
RTVSPropertyOp34
 70
     1
102
RTVSPropertyOp35
 70
     1
102
RTVSPropertyOp36
 70
     1
102
RTVSPropertyOp37
 70
     1
102
RTVSPropertyOp38
 70
     1
102
RTVSPropertyOp39
 70
     1
102
RTVSPropertyOp40
 70
     1
102
RTVSPropertyOp41
 70
     1
102
RTVSPropertyOp42
 70
     1
102
RTVSPropertyOp43
 70
     1
102
RTVSPropertyOp44
 70
     1
102
RTVSPropertyOp45
 70
     1
102
RTVSPropertyOp46
 70
     1
102
RTVSPropertyOp47
 70
     1
102
RTVSPropertyOp48
 70
     1
102
RTVSPropertyOp49
 70
     1
102
RTVSPropertyOp50
 70
     1
102
RTVSPropertyOp51
 70
     0
102
RTVSPropertyOp52
 70
     0
102
RTVSPropertyOp53
 70
     1
102
RTVSPropertyOp54
 70
     1
102
RTVSPropertyOp55
 70
     1
102
RTVSPropertyOp56
 70
     1
102
RTVSPropertyOp57
 70
     1
102
RTVSPost2010Prop28
280
     0
102
RTVSPost2010PropOp28
 70
     1
102
RTVSPost2010Prop29
280
     1
102
RTVSPost2010PropOp29
 70
     1
102
RTVSPost2010Prop30
280
     1
102
RTVSPost2010PropOp30
 70
     1
102
RTVSPost2010Prop31
280
     0
102
RTVSPost2010PropOp31
 70
     1
102
RTVSPost2010Prop32
280
     0
102
RTVSPost2010PropOp32
 70
     1
102
RTVSPost2010Prop33
280
     0
102
RTVSPost2010PropOp33
 70
     1
102
RTVSPost2010Prop34
280
     0
102
RTVSPost2010PropOp34
 70
     1
102
RTVSPost2010Prop35
280
     0
102
RTVSPost2010PropOp35
 70
     1
102
RTVSPost2010Prop36
280
     0
102
RTVSPost2010PropOp36
 70
     1
102
RTVSPost2010Prop37
 90
       50
102
RTVSPost2010PropOp37
 70
     1
102
RTVSPost2010Prop38
140
0.0
102
RTVSPost2010PropOp38
 70
     1
102
RTVSPost2010Prop39
140
1.0
102
RTVSPost2010PropOp39
 70
     1
102
RTVSPost2010Prop40
 90
        0
102
RTVSPost2010PropOp40
 70
     1
102
RTVSPost2010Prop41ColorIndex
 90
       18
102
RTVSPost2010Prop41ColorRGB
 90
        0
102
RTVSPost2010PropOp41
 70
     1
102
RTVSPost2010Prop42
 90
       50
102
RTVSPost2010PropOp42
 70
     1
102
RTVSPost2010Prop43
 90
        3
102
RTVSPost2010PropOp43
 70
     1
102
RTVSPost2010Prop44ColorIndex
 90
        5
102
RTVSPost2010Prop44ColorRGB
 90
      255
102
RTVSPost2010PropOp44
 70
     1
102
RTVSPost2010Prop45
280
     0
102
RTVSPost2010PropOp45
 70
     1
102
RTVSPost2010Prop46
 90
       50
102
RTVSPost2010PropOp46
 70
     1
102
RTVSPost2010Prop47
 90
       50
102
RTVSPost2010PropOp47
 70
     1
102
RTVSPost2010Prop48
 90
       50
102
RTVSPost2010PropOp48
 70
     1
102
RTVSPost2010Prop49
280
     0
102
RTVSPost2010PropOp49
 70
     1
102
RTVSPost2010Prop50
 90
       50
102
RTVSPost2010PropOp50
 70
     1
102
RTVSPost2010Prop51ColorIndex
 90
      256
102
RTVSPost2010Prop51ColorRGB
 90
-16777216
102
RTVSPost2010PropOp51
 70
     0
102
RTVSPost2010Prop52
140
1.0
102
RTVSPost2010PropOp52
 70
     0
102
RTVSPost2010Prop53
 90
        2
102
RTVSPost2010PropOp53
 70
     1
102
RTVSPost2010Prop54
  1
strokes_ogs.tif
102
RTVSPost2010PropOp54
 70
     1
102
RTVSPost2010Prop55
280
     0
102
RTVSPost2010PropOp55
 70
     1
102
RTVSPost2010Prop56
140
1.0
102
RTVSPost2010PropOp56
 70
     1
102
RTVSPost2010Prop57
140
1.0
102
RTVSPost2010PropOp57
 70
     1
  0
XRECORD
  5
2DE
102
{ACAD_REACTORS
330
2DD
102
}
330
2DD
100
AcDbXrecord
280
     1
102
RTVSPropertyOp0
 70
     1
102
RTVSPropertyOp1
 70
     1
102
RTVSPropertyOp2
 70
     1
102
RTVSPropertyOp3
 70
     1
102
RTVSPropertyOp4
 70
     1
102
RTVSPropertyOp5
 70
     1
102
RTVSPropertyOp6
 70
     1
102
RTVSPropertyOp7
 70
     1
102
RTVSPropertyOp8
 70
     1
102
RTVSPropertyOp9
 70
     1
102
RTVSPropertyOp10
 70
     1
102
RTVSPropertyOp11
 70
     1
102
RTVSPropertyOp12
 70
     1
102
RTVSPropertyOp13
 70
     1
102
RTVSPropertyOp14
 70
     1
102
RTVSPropertyOp15
 70
     1
102
RTVSPropertyOp16
 70
     1
102
RTVSPropertyOp17
 70
     1
102
RTVSPropertyOp18
 70
     1
102
RTVSPropertyOp19
 70
     1
102
RTVSPropertyOp20
 70
     1
102
RTVSPropertyOp21
 70
     1
102
RTVSPropertyOp22
 70
     1
102
RTVSPropertyOp23
 70
     1
102
RTVSPropertyOp24
 70
     1
102
RTVSPropertyOp25
 70
     1
102
RTVSPropertyOp26
 70
     1
102
RTVSPropertyOp27
 70
     1
102
RTVSPropertyOp28
 70
     1
102
RTVSPropertyOp29
 70
     1
102
RTVSPropertyOp30
 70
     1
102
RTVSPropertyOp31
 70
     1
102
RTVSPropertyOp32
 70
     1
102
RTVSPropertyOp33
 70
     1
102
RTVSPropertyOp34
 70
     1
102
RTVSPropertyOp35
 70
     1
102
RTVSPropertyOp36
 70
     1
102
RTVSPropertyOp37
 70
     1
102
RTVSPropertyOp38
 70
     1
102
RTVSPropertyOp39
 70
     1
102
RTVSPropertyOp40
 70
     1
102
RTVSPropertyOp41
 70
     1
102
RTVSPropertyOp42
 70
     1
102
RTVSPropertyOp43
 70
     1
102
RTVSPropertyOp44
 70
     1
102
RTVSPropertyOp45
 70
     1
102
RTVSPropertyOp46
 70
     1
102
RTVSPropertyOp47
 70
     1
102
RTVSPropertyOp48
 70
     1
102
RTVSPropertyOp49
 70
     1
102
RTVSPropertyOp50
 70
     1
102
RTVSPropertyOp51
 70
     0
102
RTVSPropertyOp52
 70
     0
102
RTVSPropertyOp53
 70
     1
102
RTVSPropertyOp54
 70
     1
102
RTVSPropertyOp55
 70
     1
102
RTVSPropertyOp56
 70
     1
102
RTVSPropertyOp57
 70
     1
102
RTVSPost2010Prop28
280
     0
102
RTVSPost2010PropOp28
 70
     1
102
RTVSPost2010Prop29
280
     1
102
RTVSPost2010PropOp29
 70
     1
102
RTVSPost2010Prop30
280
     1
102
RTVSPost2010PropOp30
 70
     1
102
RTVSPost2010Prop31
280
     0
102
RTVSPost2010PropOp31
 70
     1
102
RTVSPost2010Prop32
280
     0
102
RTVSPost2010PropOp32
 70
     1
102
RTVSPost2010Prop33
280
     0
102
RTVSPost2010PropOp33
 70
     1
102
RTVSPost2010Prop34
280
     0
102
RTVSPost2010PropOp34
 70
     1
102
RTVSPost2010Prop35
280
     0
102
RTVSPost2010PropOp35
 70
     1
102
RTVSPost2010Prop36
280
     0
102
RTVSPost2010PropOp36
 70
     1
102
RTVSPost2010Prop37
 90
       50
102
RTVSPost2010PropOp37
 70
     1
102
RTVSPost2010Prop38
140
0.0
102
RTVSPost2010PropOp38
 70
     1
102
RTVSPost2010Prop39
140
1.0
102
RTVSPost2010PropOp39
 70
     1
102
RTVSPost2010Prop40
 90
        0
102
RTVSPost2010PropOp40
 70
     1
102
RTVSPost2010Prop41ColorIndex
 90
       18
102
RTVSPost2010Prop41ColorRGB
 90
        0
102
RTVSPost2010PropOp41
 70
     1
102
RTVSPost2010Prop42
 90
       50
102
RTVSPost2010PropOp42
 70
     1
102
RTVSPost2010Prop43
 90
        3
102
RTVSPost2010PropOp43
 70
     1
102
RTVSPost2010Prop44ColorIndex
 90
        5
102
RTVSPost2010Prop44ColorRGB
 90
      255
102
RTVSPost2010PropOp44
 70
     1
102
RTVSPost2010Prop45
280
     0
102
RTVSPost2010PropOp45
 70
     1
102
RTVSPost2010Prop46
 90
       50
102
RTVSPost2010PropOp46
 70
     1
102
RTVSPost2010Prop47
 90
       50
102
RTVSPost2010PropOp47
 70
     1
102
RTVSPost2010Prop48
 90
       50
102
RTVSPost2010PropOp48
 70
     1
102
RTVSPost2010Prop49
280
     0
102
RTVSPost2010PropOp49
 70
     1
102
RTVSPost2010Prop50
 90
       50
102
RTVSPost2010PropOp50
 70
     1
102
RTVSPost2010Prop51ColorIndex
 90
      256
102
RTVSPost2010Prop51ColorRGB
 90
-16777216
102
RTVSPost2010PropOp51
 70
     0
102
RTVSPost2010Prop52
140
1.0
102
RTVSPost2010PropOp52
 70
     0
102
RTVSPost2010Prop53
 90
        2
102
RTVSPost2010PropOp53
 70
     1
102
RTVSPost2010Prop54
  1
strokes_ogs.tif
102
RTVSPost2010PropOp54
 70
     1
102
RTVSPost2010Prop55
280
     0
102
RTVSPost2010PropOp55
 70
     1
102
RTVSPost2010Prop56
140
1.0
102
RTVSPost2010PropOp56
 70
     1
102
RTVSPost2010Prop57
140
1.0
102
RTVSPost2010PropOp57
 70
     1
  0
XRECORD
  5
2D8
102
{ACAD_REACTORS
330
2D7
102
}
330
2D7
100
AcDbXrecord
280
     1
102
RTVSPropertyOp0
 70
     1
102
RTVSPropertyOp1
 70
     1
102
RTVSPropertyOp2
 70
     1
102
RTVSPropertyOp3
 70
     1
102
RTVSPropertyOp4
 70
     1
102
RTVSPropertyOp5
 70
     1
102
RTVSPropertyOp6
 70
     1
102
RTVSPropertyOp7
 70
     1
102
RTVSPropertyOp8
 70
     1
102
RTVSPropertyOp9
 70
     1
102
RTVSPropertyOp10
 70
     1
102
RTVSPropertyOp11
 70
     1
102
RTVSPropertyOp12
 70
     1
102
RTVSPropertyOp13
 70
     1
102
RTVSPropertyOp14
 70
     1
102
RTVSPropertyOp15
 70
     1
102
RTVSPropertyOp16
 70
     1
102
RTVSPropertyOp17
 70
     1
102
RTVSPropertyOp18
 70
     1
102
RTVSPropertyOp19
 70
     1
102
RTVSPropertyOp20
 70
     1
102
RTVSPropertyOp21
 70
     1
102
RTVSPropertyOp22
 70
     1
102
RTVSPropertyOp23
 70
     1
102
RTVSPropertyOp24
 70
     1
102
RTVSPropertyOp25
 70
     1
102
RTVSPropertyOp26
 70
     1
102
RTVSPropertyOp27
 70
     1
102
RTVSPropertyOp28
 70
     1
102
RTVSPropertyOp29
 70
     1
102
RTVSPropertyOp30
 70
     1
102
RTVSPropertyOp31
 70
     1
102
RTVSPropertyOp32
 70
     1
102
RTVSPropertyOp33
 70
     1
102
RTVSPropertyOp34
 70
     1
102
RTVSPropertyOp35
 70
     1
102
RTVSPropertyOp36
 70
     1
102
RTVSPropertyOp37
 70
     1
102
RTVSPropertyOp38
 70
     1
102
RTVSPropertyOp39
 70
     1
102
RTVSPropertyOp40
 70
     1
102
RTVSPropertyOp41
 70
     1
102
RTVSPropertyOp42
 70
     1
102
RTVSPropertyOp43
 70
     1
102
RTVSPropertyOp44
 70
     1
102
RTVSPropertyOp45
 70
     1
102
RTVSPropertyOp46
 70
     1
102
RTVSPropertyOp47
 70
     1
102
RTVSPropertyOp48
 70
     1
102
RTVSPropertyOp49
 70
     1
102
RTVSPropertyOp50
 70
     1
102
RTVSPropertyOp51
 70
     0
102
RTVSPropertyOp52
 70
     0
102
RTVSPropertyOp53
 70
     1
102
RTVSPropertyOp54
 70
     1
102
RTVSPropertyOp55
 70
     1
102
RTVSPropertyOp56
 70
     1
102
RTVSPropertyOp57
 70
     1
102
RTVSPost2010Prop28
280
     0
102
RTVSPost2010PropOp28
 70
     1
102
RTVSPost2010Prop29
280
     1
102
RTVSPost2010PropOp29
 70
     1
102
RTVSPost2010Prop30
280
     1
102
RTVSPost2010PropOp30
 70
     1
102
RTVSPost2010Prop31
280
     0
102
RTVSPost2010PropOp31
 70
     1
102
RTVSPost2010Prop32
280
     0
102
RTVSPost2010PropOp32
 70
     1
102
RTVSPost2010Prop33
280
     0
102
RTVSPost2010PropOp33
 70
     1
102
RTVSPost2010Prop34
280
     0
102
RTVSPost2010PropOp34
 70
     1
102
RTVSPost2010Prop35
280
     0
102
RTVSPost2010PropOp35
 70
     1
102
RTVSPost2010Prop36
280
     0
102
RTVSPost2010PropOp36
 70
     1
102
RTVSPost2010Prop37
 90
       50
102
RTVSPost2010PropOp37
 70
     1
102
RTVSPost2010Prop38
140
0.0
102
RTVSPost2010PropOp38
 70
     1
102
RTVSPost2010Prop39
140
1.0
102
RTVSPost2010PropOp39
 70
     1
102
RTVSPost2010Prop40
 90
        0
102
RTVSPost2010PropOp40
 70
     1
102
RTVSPost2010Prop41ColorIndex
 90
       18
102
RTVSPost2010Prop41ColorRGB
 90
        0
102
RTVSPost2010PropOp41
 70
     1
102
RTVSPost2010Prop42
 90
       50
102
RTVSPost2010PropOp42
 70
     1
102
RTVSPost2010Prop43
 90
        3
102
RTVSPost2010PropOp43
 70
     1
102
RTVSPost2010Prop44ColorIndex
 90
        5
102
RTVSPost2010Prop44ColorRGB
 90
      255
102
RTVSPost2010PropOp44
 70
     1
102
RTVSPost2010Prop45
280
     0
102
RTVSPost2010PropOp45
 70
     1
102
RTVSPost2010Prop46
 90
       50
102
RTVSPost2010PropOp46
 70
     1
102
RTVSPost2010Prop47
 90
       50
102
RTVSPost2010PropOp47
 70
     1
102
RTVSPost2010Prop48
 90
       50
102
RTVSPost2010PropOp48
 70
     1
102
RTVSPost2010Prop49
280
     0
102
RTVSPost2010PropOp49
 70
     1
102
RTVSPost2010Prop50
 90
       50
102
RTVSPost2010PropOp50
 70
     1
102
RTVSPost2010Prop51ColorIndex
 90
      256
102
RTVSPost2010Prop51ColorRGB
 90
-16777216
102
RTVSPost2010PropOp51
 70
     0
102
RTVSPost2010Prop52
140
1.0
102
RTVSPost2010PropOp52
 70
     0
102
RTVSPost2010Prop53
 90
        2
102
RTVSPost2010PropOp53
 70
     1
102
RTVSPost2010Prop54
  1
strokes_ogs.tif
102
RTVSPost2010PropOp54
 70
     1
102
RTVSPost2010Prop55
280
     0
102
RTVSPost2010PropOp55
 70
     1
102
RTVSPost2010Prop56
140
1.0
102
RTVSPost2010PropOp56
 70
     1
102
RTVSPost2010Prop57
140
1.0
102
RTVSPost2010PropOp57
 70
     1
  0
XRECORD
  5
2DA
102
{ACAD_REACTORS
330
2D9
102
}
330
2D9
100
AcDbXrecord
280
     1
102
RTVSPropertyOp0
 70
     1
102
RTVSPropertyOp1
 70
     1
102
RTVSPropertyOp2
 70
     1
102
RTVSPropertyOp3
 70
     1
102
RTVSPropertyOp4
 70
     1
102
RTVSPropertyOp5
 70
     1
102
RTVSPropertyOp6
 70
     1
102
RTVSPropertyOp7
 70
     1
102
RTVSPropertyOp8
 70
     1
102
RTVSPropertyOp9
 70
     1
102
RTVSPropertyOp10
 70
     1
102
RTVSPropertyOp11
 70
     1
102
RTVSPropertyOp12
 70
     1
102
RTVSPropertyOp13
 70
     1
102
RTVSPropertyOp14
 70
     1
102
RTVSPropertyOp15
 70
     1
102
RTVSPropertyOp16
 70
     1
102
RTVSPropertyOp17
 70
     1
102
RTVSPropertyOp18
 70
     1
102
RTVSPropertyOp19
 70
     1
102
RTVSPropertyOp20
 70
     1
102
RTVSPropertyOp21
 70
     1
102
RTVSPropertyOp22
 70
     1
102
RTVSPropertyOp23
 70
     1
102
RTVSPropertyOp24
 70
     1
102
RTVSPropertyOp25
 70
     1
102
RTVSPropertyOp26
 70
     1
102
RTVSPropertyOp27
 70
     1
102
RTVSPropertyOp28
 70
     1
102
RTVSPropertyOp29
 70
     1
102
RTVSPropertyOp30
 70
     1
102
RTVSPropertyOp31
 70
     1
102
RTVSPropertyOp32
 70
     1
102
RTVSPropertyOp33
 70
     1
102
RTVSPropertyOp34
 70
     1
102
RTVSPropertyOp35
 70
     1
102
RTVSPropertyOp36
 70
     1
102
RTVSPropertyOp37
 70
     1
102
RTVSPropertyOp38
 70
     1
102
RTVSPropertyOp39
 70
     1
102
RTVSPropertyOp40
 70
     1
102
RTVSPropertyOp41
 70
     1
102
RTVSPropertyOp42
 70
     1
102
RTVSPropertyOp43
 70
     1
102
RTVSPropertyOp44
 70
     1
102
RTVSPropertyOp45
 70
     1
102
RTVSPropertyOp46
 70
     1
102
RTVSPropertyOp47
 70
     1
102
RTVSPropertyOp48
 70
     1
102
RTVSPropertyOp49
 70
     1
102
RTVSPropertyOp50
 70
     1
102
RTVSPropertyOp51
 70
     0
102
RTVSPropertyOp52
 70
     0
102
RTVSPropertyOp53
 70
     1
102
RTVSPropertyOp54
 70
     1
102
RTVSPropertyOp55
 70
     1
102
RTVSPropertyOp56
 70
     1
102
RTVSPropertyOp57
 70
     1
102
RTVSPost2010Prop28
280
     0
102
RTVSPost2010PropOp28
 70
     1
102
RTVSPost2010Prop29
280
     1
102
RTVSPost2010PropOp29
 70
     1
102
RTVSPost2010Prop30
280
     1
102
RTVSPost2010PropOp30
 70
     1
102
RTVSPost2010Prop31
280
     0
102
RTVSPost2010PropOp31
 70
     1
102
RTVSPost2010Prop32
280
     0
102
RTVSPost2010PropOp32
 70
     1
102
RTVSPost2010Prop33
280
     0
102
RTVSPost2010PropOp33
 70
     1
102
RTVSPost2010Prop34
280
     0
102
RTVSPost2010PropOp34
 70
     1
102
RTVSPost2010Prop35
280
     0
102
RTVSPost2010PropOp35
 70
     1
102
RTVSPost2010Prop36
280
     0
102
RTVSPost2010PropOp36
 70
     1
102
RTVSPost2010Prop37
 90
       50
102
RTVSPost2010PropOp37
 70
     1
102
RTVSPost2010Prop38
140
0.0
102
RTVSPost2010PropOp38
 70
     1
102
RTVSPost2010Prop39
140
1.0
102
RTVSPost2010PropOp39
 70
     1
102
RTVSPost2010Prop40
 90
        0
102
RTVSPost2010PropOp40
 70
     1
102
RTVSPost2010Prop41ColorIndex
 90
       18
102
RTVSPost2010Prop41ColorRGB
 90
        0
102
RTVSPost2010PropOp41
 70
     1
102
RTVSPost2010Prop42
 90
       50
102
RTVSPost2010PropOp42
 70
     1
102
RTVSPost2010Prop43
 90
        3
102
RTVSPost2010PropOp43
 70
     1
102
RTVSPost2010Prop44ColorIndex
 90
        5
102
RTVSPost2010Prop44ColorRGB
 90
      255
102
RTVSPost2010PropOp44
 70
     1
102
RTVSPost2010Prop45
280
     0
102
RTVSPost2010PropOp45
 70
     1
102
RTVSPost2010Prop46
 90
       50
102
RTVSPost2010PropOp46
 70
     1
102
RTVSPost2010Prop47
 90
       50
102
RTVSPost2010PropOp47
 70
     1
102
RTVSPost2010Prop48
 90
       50
102
RTVSPost2010PropOp48
 70
     1
102
RTVSPost2010Prop49
280
     0
102
RTVSPost2010PropOp49
 70
     1
102
RTVSPost2010Prop50
 90
       50
102
RTVSPost2010PropOp50
 70
     1
102
RTVSPost2010Prop51ColorIndex
 90
      256
102
RTVSPost2010Prop51ColorRGB
 90
-16777216
102
RTVSPost2010PropOp51
 70
     0
102
RTVSPost2010Prop52
140
1.0
102
RTVSPost2010PropOp52
 70
     0
102
RTVSPost2010Prop53
 90
        2
102
RTVSPost2010PropOp53
 70
     1
102
RTVSPost2010Prop54
  1
strokes_ogs.tif
102
RTVSPost2010PropOp54
 70
     1
102
RTVSPost2010Prop55
280
     0
102
RTVSPost2010PropOp55
 70
     1
102
RTVSPost2010Prop56
140
1.0
102
RTVSPost2010PropOp56
 70
     1
102
RTVSPost2010Prop57
140
1.0
102
RTVSPost2010PropOp57
 70
     1
  0
XRECORD
  5
2CA
102
{ACAD_REACTORS
330
2C9
102
}
330
2C9
100
AcDbXrecord
280
     1
102
RTVSPropertyOp0
 70
     1
102
RTVSPropertyOp1
 70
     1
102
RTVSPropertyOp2
 70
     1
102
RTVSPropertyOp3
 70
     1
102
RTVSPropertyOp4
 70
     1
102
RTVSPropertyOp5
 70
     1
102
RTVSPropertyOp6
 70
     1
102
RTVSPropertyOp7
 70
     1
102
RTVSPropertyOp8
 70
     1
102
RTVSPropertyOp9
 70
     1
102
RTVSPropertyOp10
 70
     1
102
RTVSPropertyOp11
 70
     1
102
RTVSPropertyOp12
 70
     1
102
RTVSPropertyOp13
 70
     1
102
RTVSPropertyOp14
 70
     1
102
RTVSPropertyOp15
 70
     1
102
RTVSPropertyOp16
 70
     1
102
RTVSPropertyOp17
 70
     1
102
RTVSPropertyOp18
 70
     1
102
RTVSPropertyOp19
 70
     1
102
RTVSPropertyOp20
 70
     1
102
RTVSPropertyOp21
 70
     1
102
RTVSPropertyOp22
 70
     1
102
RTVSPropertyOp23
 70
     1
102
RTVSPropertyOp24
 70
     1
102
RTVSPropertyOp25
 70
     1
102
RTVSPropertyOp26
 70
     1
102
RTVSPropertyOp27
 70
     1
102
RTVSPropertyOp28
 70
     1
102
RTVSPropertyOp29
 70
     1
102
RTVSPropertyOp30
 70
     1
102
RTVSPropertyOp31
 70
     1
102
RTVSPropertyOp32
 70
     1
102
RTVSPropertyOp33
 70
     1
102
RTVSPropertyOp34
 70
     1
102
RTVSPropertyOp35
 70
     1
102
RTVSPropertyOp36
 70
     1
102
RTVSPropertyOp37
 70
     1
102
RTVSPropertyOp38
 70
     1
102
RTVSPropertyOp39
 70
     1
102
RTVSPropertyOp40
 70
     1
102
RTVSPropertyOp41
 70
     1
102
RTVSPropertyOp42
 70
     1
102
RTVSPropertyOp43
 70
     1
102
RTVSPropertyOp44
 70
     1
102
RTVSPropertyOp45
 70
     1
102
RTVSPropertyOp46
 70
     1
102
RTVSPropertyOp47
 70
     1
102
RTVSPropertyOp48
 70
     1
102
RTVSPropertyOp49
 70
     1
102
RTVSPropertyOp50
 70
     1
102
RTVSPropertyOp51
 70
     0
102
RTVSPropertyOp52
 70
     0
102
RTVSPropertyOp53
 70
     1
102
RTVSPropertyOp54
 70
     1
102
RTVSPropertyOp55
 70
     1
102
RTVSPropertyOp56
 70
     1
102
RTVSPropertyOp57
 70
     1
102
RTVSPost2010Prop28
280
     0
102
RTVSPost2010PropOp28
 70
     1
102
RTVSPost2010Prop29
280
     1
102
RTVSPost2010PropOp29
 70
     1
102
RTVSPost2010Prop30
280
     1
102
RTVSPost2010PropOp30
 70
     1
102
RTVSPost2010Prop31
280
     0
102
RTVSPost2010PropOp31
 70
     1
102
RTVSPost2010Prop32
280
     0
102
RTVSPost2010PropOp32
 70
     1
102
RTVSPost2010Prop33
280
     0
102
RTVSPost2010PropOp33
 70
     1
102
RTVSPost2010Prop34
280
     0
102
RTVSPost2010PropOp34
 70
     1
102
RTVSPost2010Prop35
280
     0
102
RTVSPost2010PropOp35
 70
     1
102
RTVSPost2010Prop36
280
     0
102
RTVSPost2010PropOp36
 70
     1
102
RTVSPost2010Prop37
 90
       50
102
RTVSPost2010PropOp37
 70
     1
102
RTVSPost2010Prop38
140
0.0
102
RTVSPost2010PropOp38
 70
     1
102
RTVSPost2010Prop39
140
1.0
102
RTVSPost2010PropOp39
 70
     1
102
RTVSPost2010Prop40
 90
        0
102
RTVSPost2010PropOp40
 70
     1
102
RTVSPost2010Prop41ColorIndex
 90
       18
102
RTVSPost2010Prop41ColorRGB
 90
        0
102
RTVSPost2010PropOp41
 70
     1
102
RTVSPost2010Prop42
 90
       50
102
RTVSPost2010PropOp42
 70
     1
102
RTVSPost2010Prop43
 90
        3
102
RTVSPost2010PropOp43
 70
     1
102
RTVSPost2010Prop44ColorIndex
 90
        5
102
RTVSPost2010Prop44ColorRGB
 90
      255
102
RTVSPost2010PropOp44
 70
     1
102
RTVSPost2010Prop45
280
     0
102
RTVSPost2010PropOp45
 70
     1
102
RTVSPost2010Prop46
 90
       50
102
RTVSPost2010PropOp46
 70
     1
102
RTVSPost2010Prop47
 90
       50
102
RTVSPost2010PropOp47
 70
     1
102
RTVSPost2010Prop48
 90
       50
102
RTVSPost2010PropOp48
 70
     1
102
RTVSPost2010Prop49
280
     0
102
RTVSPost2010PropOp49
 70
     1
102
RTVSPost2010Prop50
 90
       50
102
RTVSPost2010PropOp50
 70
     1
102
RTVSPost2010Prop51ColorIndex
 90
      256
102
RTVSPost2010Prop51ColorRGB
 90
-16777216
102
RTVSPost2010PropOp51
 70
     0
102
RTVSPost2010Prop52
140
1.0
102
RTVSPost2010PropOp52
 70
     0
102
RTVSPost2010Prop53
 90
        2
102
RTVSPost2010PropOp53
 70
     1
102
RTVSPost2010Prop54
  1
strokes_ogs.tif
102
RTVSPost2010PropOp54
 70
     1
102
RTVSPost2010Prop55
280
     0
102
RTVSPost2010PropOp55
 70
     1
102
RTVSPost2010Prop56
140
1.0
102
RTVSPost2010PropOp56
 70
     1
102
RTVSPost2010Prop57
140
1.0
102
RTVSPost2010PropOp57
 70
     1
  0
XRECORD
  5
2BC
102
{ACAD_REACTORS
330
2BB
102
}
330
2BB
100
AcDbXrecord
280
     1
102
RTVSPropertyOp0
 70
     1
102
RTVSPropertyOp1
 70
     1
102
RTVSPropertyOp2
 70
     1
102
RTVSPropertyOp3
 70
     1
102
RTVSPropertyOp4
 70
     1
102
RTVSPropertyOp5
 70
     1
102
RTVSPropertyOp6
 70
     1
102
RTVSPropertyOp7
 70
     1
102
RTVSPropertyOp8
 70
     1
102
RTVSPropertyOp9
 70
     1
102
RTVSPropertyOp10
 70
     1
102
RTVSPropertyOp11
 70
     1
102
RTVSPropertyOp12
 70
     1
102
RTVSPropertyOp13
 70
     1
102
RTVSPropertyOp14
 70
     1
102
RTVSPropertyOp15
 70
     1
102
RTVSPropertyOp16
 70
     1
102
RTVSPropertyOp17
 70
     1
102
RTVSPropertyOp18
 70
     1
102
RTVSPropertyOp19
 70
     1
102
RTVSPropertyOp20
 70
     1
102
RTVSPropertyOp21
 70
     1
102
RTVSPropertyOp22
 70
     1
102
RTVSPropertyOp23
 70
     1
102
RTVSPropertyOp24
 70
     1
102
RTVSPropertyOp25
 70
     1
102
RTVSPropertyOp26
 70
     1
102
RTVSPropertyOp27
 70
     1
102
RTVSPropertyOp28
 70
     1
102
RTVSPropertyOp29
 70
     1
102
RTVSPropertyOp30
 70
     1
102
RTVSPropertyOp31
 70
     1
102
RTVSPropertyOp32
 70
     1
102
RTVSPropertyOp33
 70
     1
102
RTVSPropertyOp34
 70
     1
102
RTVSPropertyOp35
 70
     1
102
RTVSPropertyOp36
 70
     1
102
RTVSPropertyOp37
 70
     1
102
RTVSPropertyOp38
 70
     1
102
RTVSPropertyOp39
 70
     1
102
RTVSPropertyOp40
 70
     1
102
RTVSPropertyOp41
 70
     1
102
RTVSPropertyOp42
 70
     1
102
RTVSPropertyOp43
 70
     1
102
RTVSPropertyOp44
 70
     1
102
RTVSPropertyOp45
 70
     1
102
RTVSPropertyOp46
 70
     1
102
RTVSPropertyOp47
 70
     1
102
RTVSPropertyOp48
 70
     1
102
RTVSPropertyOp49
 70
     1
102
RTVSPropertyOp50
 70
     1
102
RTVSPropertyOp51
 70
     0
102
RTVSPropertyOp52
 70
     0
102
RTVSPropertyOp53
 70
     1
102
RTVSPropertyOp54
 70
     1
102
RTVSPropertyOp55
 70
     1
102
RTVSPropertyOp56
 70
     1
102
RTVSPropertyOp57
 70
     1
102
RTVSPost2010Prop28
280
     0
102
RTVSPost2010PropOp28
 70
     1
102
RTVSPost2010Prop29
280
     1
102
RTVSPost2010PropOp29
 70
     1
102
RTVSPost2010Prop30
280
     1
102
RTVSPost2010PropOp30
 70
     1
102
RTVSPost2010Prop31
280
     0
102
RTVSPost2010PropOp31
 70
     1
102
RTVSPost2010Prop32
280
     0
102
RTVSPost2010PropOp32
 70
     1
102
RTVSPost2010Prop33
280
     0
102
RTVSPost2010PropOp33
 70
     1
102
RTVSPost2010Prop34
280
     0
102
RTVSPost2010PropOp34
 70
     1
102
RTVSPost2010Prop35
280
     0
102
RTVSPost2010PropOp35
 70
     1
102
RTVSPost2010Prop36
280
     0
102
RTVSPost2010PropOp36
 70
     1
102
RTVSPost2010Prop37
 90
       50
102
RTVSPost2010PropOp37
 70
     1
102
RTVSPost2010Prop38
140
0.0
102
RTVSPost2010PropOp38
 70
     1
102
RTVSPost2010Prop39
140
1.0
102
RTVSPost2010PropOp39
 70
     1
102
RTVSPost2010Prop40
 90
        0
102
RTVSPost2010PropOp40
 70
     1
102
RTVSPost2010Prop41ColorIndex
 90
       18
102
RTVSPost2010Prop41ColorRGB
 90
        0
102
RTVSPost2010PropOp41
 70
     1
102
RTVSPost2010Prop42
 90
       50
102
RTVSPost2010PropOp42
 70
     1
102
RTVSPost2010Prop43
 90
        3
102
RTVSPost2010PropOp43
 70
     1
102
RTVSPost2010Prop44ColorIndex
 90
        5
102
RTVSPost2010Prop44ColorRGB
 90
      255
102
RTVSPost2010PropOp44
 70
     1
102
RTVSPost2010Prop45
280
     0
102
RTVSPost2010PropOp45
 70
     1
102
RTVSPost2010Prop46
 90
       50
102
RTVSPost2010PropOp46
 70
     1
102
RTVSPost2010Prop47
 90
       50
102
RTVSPost2010PropOp47
 70
     1
102
RTVSPost2010Prop48
 90
       50
102
RTVSPost2010PropOp48
 70
     1
102
RTVSPost2010Prop49
280
     0
102
RTVSPost2010PropOp49
 70
     1
102
RTVSPost2010Prop50
 90
       50
102
RTVSPost2010PropOp50
 70
     1
102
RTVSPost2010Prop51ColorIndex
 90
      256
102
RTVSPost2010Prop51ColorRGB
 90
-16777216
102
RTVSPost2010PropOp51
 70
     0
102
RTVSPost2010Prop52
140
1.0
102
RTVSPost2010PropOp52
 70
     0
102
RTVSPost2010Prop53
 90
        2
102
RTVSPost2010PropOp53
 70
     1
102
RTVSPost2010Prop54
  1
strokes_ogs.tif
102
RTVSPost2010PropOp54
 70
     1
102
RTVSPost2010Prop55
280
     0
102
RTVSPost2010PropOp55
 70
     1
102
RTVSPost2010Prop56
140
1.0
102
RTVSPost2010PropOp56
 70
     1
102
RTVSPost2010Prop57
140
1.0
102
RTVSPost2010PropOp57
 70
     1
  0
XRECORD
  5
2DC
102
{ACAD_REACTORS
330
2DB
102
}
330
2DB
100
AcDbXrecord
280
     1
102
RTVSPropertyOp0
 70
     1
102
RTVSPropertyOp1
 70
     1
102
RTVSPropertyOp2
 70
     1
102
RTVSPropertyOp3
 70
     1
102
RTVSPropertyOp4
 70
     1
102
RTVSPropertyOp5
 70
     1
102
RTVSPropertyOp6
 70
     1
102
RTVSPropertyOp7
 70
     1
102
RTVSPropertyOp8
 70
     1
102
RTVSPropertyOp9
 70
     1
102
RTVSPropertyOp10
 70
     1
102
RTVSPropertyOp11
 70
     1
102
RTVSPropertyOp12
 70
     1
102
RTVSPropertyOp13
 70
     1
102
RTVSPropertyOp14
 70
     1
102
RTVSPropertyOp15
 70
     1
102
RTVSPropertyOp16
 70
     1
102
RTVSPropertyOp17
 70
     1
102
RTVSPropertyOp18
 70
     1
102
RTVSPropertyOp19
 70
     1
102
RTVSPropertyOp20
 70
     1
102
RTVSPropertyOp21
 70
     1
102
RTVSPropertyOp22
 70
     1
102
RTVSPropertyOp23
 70
     1
102
RTVSPropertyOp24
 70
     1
102
RTVSPropertyOp25
 70
     1
102
RTVSPropertyOp26
 70
     1
102
RTVSPropertyOp27
 70
     1
102
RTVSPropertyOp28
 70
     1
102
RTVSPropertyOp29
 70
     1
102
RTVSPropertyOp30
 70
     1
102
RTVSPropertyOp31
 70
     1
102
RTVSPropertyOp32
 70
     1
102
RTVSPropertyOp33
 70
     1
102
RTVSPropertyOp34
 70
     1
102
RTVSPropertyOp35
 70
     1
102
RTVSPropertyOp36
 70
     1
102
RTVSPropertyOp37
 70
     1
102
RTVSPropertyOp38
 70
     1
102
RTVSPropertyOp39
 70
     1
102
RTVSPropertyOp40
 70
     1
102
RTVSPropertyOp41
 70
     1
102
RTVSPropertyOp42
 70
     1
102
RTVSPropertyOp43
 70
     1
102
RTVSPropertyOp44
 70
     1
102
RTVSPropertyOp45
 70
     1
102
RTVSPropertyOp46
 70
     1
102
RTVSPropertyOp47
 70
     1
102
RTVSPropertyOp48
 70
     1
102
RTVSPropertyOp49
 70
     1
102
RTVSPropertyOp50
 70
     1
102
RTVSPropertyOp51
 70
     0
102
RTVSPropertyOp52
 70
     0
102
RTVSPropertyOp53
 70
     1
102
RTVSPropertyOp54
 70
     1
102
RTVSPropertyOp55
 70
     1
102
RTVSPropertyOp56
 70
     1
102
RTVSPropertyOp57
 70
     1
102
RTVSPost2010Prop28
280
     0
102
RTVSPost2010PropOp28
 70
     1
102
RTVSPost2010Prop29
280
     1
102
RTVSPost2010PropOp29
 70
     1
102
RTVSPost2010Prop30
280
     1
102
RTVSPost2010PropOp30
 70
     1
102
RTVSPost2010Prop31
280
     0
102
RTVSPost2010PropOp31
 70
     1
102
RTVSPost2010Prop32
280
     0
102
RTVSPost2010PropOp32
 70
     1
102
RTVSPost2010Prop33
280
     0
102
RTVSPost2010PropOp33
 70
     1
102
RTVSPost2010Prop34
280
     0
102
RTVSPost2010PropOp34
 70
     1
102
RTVSPost2010Prop35
280
     0
102
RTVSPost2010PropOp35
 70
     1
102
RTVSPost2010Prop36
280
     0
102
RTVSPost2010PropOp36
 70
     1
102
RTVSPost2010Prop37
 90
       50
102
RTVSPost2010PropOp37
 70
     1
102
RTVSPost2010Prop38
140
0.0
102
RTVSPost2010PropOp38
 70
     1
102
RTVSPost2010Prop39
140
1.0
102
RTVSPost2010PropOp39
 70
     1
102
RTVSPost2010Prop40
 90
        0
102
RTVSPost2010PropOp40
 70
     1
102
RTVSPost2010Prop41ColorIndex
 90
       18
102
RTVSPost2010Prop41ColorRGB
 90
        0
102
RTVSPost2010PropOp41
 70
     1
102
RTVSPost2010Prop42
 90
       50
102
RTVSPost2010PropOp42
 70
     1
102
RTVSPost2010Prop43
 90
        3
102
RTVSPost2010PropOp43
 70
     1
102
RTVSPost2010Prop44ColorIndex
 90
        5
102
RTVSPost2010Prop44ColorRGB
 90
      255
102
RTVSPost2010PropOp44
 70
     1
102
RTVSPost2010Prop45
280
     0
102
RTVSPost2010PropOp45
 70
     1
102
RTVSPost2010Prop46
 90
       50
102
RTVSPost2010PropOp46
 70
     1
102
RTVSPost2010Prop47
 90
       50
102
RTVSPost2010PropOp47
 70
     1
102
RTVSPost2010Prop48
 90
       50
102
RTVSPost2010PropOp48
 70
     1
102
RTVSPost2010Prop49
280
     0
102
RTVSPost2010PropOp49
 70
     1
102
RTVSPost2010Prop50
 90
       50
102
RTVSPost2010PropOp50
 70
     1
102
RTVSPost2010Prop51ColorIndex
 90
      256
102
RTVSPost2010Prop51ColorRGB
 90
-16777216
102
RTVSPost2010PropOp51
 70
     0
102
RTVSPost2010Prop52
140
1.0
102
RTVSPost2010PropOp52
 70
     0
102
RTVSPost2010Prop53
 90
        2
102
RTVSPost2010PropOp53
 70
     1
102
RTVSPost2010Prop54
  1
strokes_ogs.tif
102
RTVSPost2010PropOp54
 70
     1
102
RTVSPost2010Prop55
280
     0
102
RTVSPost2010PropOp55
 70
     1
102
RTVSPost2010Prop56
140
1.0
102
RTVSPost2010PropOp56
 70
     1
102
RTVSPost2010Prop57
140
1.0
102
RTVSPost2010PropOp57
 70
     1
  0
ENDSEC
  0
EOF
